PrimaNota.ru - самый крупный в мире бесплатный архив песенных текстов, аккордов, табулатур и нот


Washya - Down Below A Devils Canyon - таба

Регистрация Запомнить меня
Войти через:  Facebook Google Twitter Vk Yandex Mail.ru

Washya - Down Below A Devils Canyon - таба

Печатать
Просмотров: 51
-------------------------------------------------------------------------------
              Down Below A Devil's Canyon - Washya
-------------------------------------------------------------------------------
Tuning: Standard (EBGDAE) (VERY HEAVY)
Intro
E|-------------------------------------|
B|-------------------------------------|
G|-------------------------------------|
D|-------------------------------------|
A|-22-22-2-22-22-2-22-22-2-22-22-2-4/5-|
E|-00-00-0-00-00-0-00-00-0-00-00-0-2/3-|
PM ** ** * ** ** * ** ** * ** ** * 

Main Riff
E|-------------------------------------------------------------|
B|-------------------------------------------------------------|
G|-------------------------------------------------------------|
D|--------------88-8\5-----3-------------10\9/10\7-------------|
A|--------555-5-66-6\3-3/5-1-555/666/777-8-\7/8--5-7-333/444/5-|
E|-//xx\\-333-3--------1/3---333/444/555-----------5-111/222/3-|

Verses
E|-----------------------------------------------------------|
B|-----------------------------------------------------------|
G|-----------------------------------------------------------|
D|-----------------5\4-2-------------------8\6\5----777\55/9-|
A|-22-22-2-22-22-2-3\2-0-4-22-22-2-22-22-2-6\4\3-6-/555\33/7-|
E|-00-00-0-00-00-0-------2-00-00-0-00-00-0-------4-----------|
PM ** ** * ** ** *         ** ** * ** ** * 

Guitar Solo
E|-----------------------------10b~-/---12h14h15p14p12----12h14h15p14p12--|
B|-----7h8p7----7h8p7----7h8p7-10b~--14----------------14-----------------|
G|--9b-------9b-------9b--------------------------------------------------|
D|-/9b-------9b-------9b--------------------------------------------------|
A|------------------------------------------------------------------------|
E|------------------------------------------------------------------------|

E|----12h14h15p14p12-----------13p12---------------------------------|
B|-14----------------14-/12h14-------10h12~-12h14p12h14\10h12p10h12\-|
G|-------------------------------------------------------------------|
D|-------------------------------------------------------------------|
A|-------------------------------------------------------------------|
E|-------------------------------------------------------------------|

E|------------------------------------------------13-15----13-15----13-15-|
B|-8h10p8h10p8\6h8p6h8\7h8p7h8p7\5h7p5h7p5p4~-/14-------14-------14-------|
G|------------------------------------------------------------------------|
D|------------------------------------------------------------------------|
A|------------------------------------------------------------------------|
E|------------------------------------------------------------------------|

E|----13-15----13-15----13-15-17b-19b~~-|
B|-14-------14-------14-------17b-19b~~-|
G|--------------------------------------|
D|--------------------------------------|
A|--------------------------------------|
E|--------------------------------------|

Intro
E|-------------------------------------|
B|-------------------------------------|
G|-------------------------------------|
D|-------------------------------------|
A|-22-22-2-22-22-2-22-22-2-22-22-2-4/5-|
E|-00-00-0-00-00-0-00-00-0-00-00-0-2/3-|
PM ** ** * ** ** * ** ** * ** ** * 

Main Riff
E|-------------------------------------------------------------|
B|-------------------------------------------------------------|
G|-------------------------------------------------------------|
D|--------------88-8\5-----3-------------10\9/10\7-------------|
A|--------555-5-66-6\3-3/5-1-555/666/777-8-\7/8--5-7-333/444/5-|
E|-//xx\\-333-3--------1/3---333/444/555-----------5-111/222/3-|

Verses
E|-----------------------------------------------------------|
B|-----------------------------------------------------------|
G|-----------------------------------------------------------|
D|-----------------5\4-2-------------------8\6\5----777\55/9-|
A|-22-22-2-22-22-2-3\2-0-4-22-22-2-22-22-2-6\4\3-6-/555\33/7-|
E|-00-00-0-00-00-0-------2-00-00-0-00-00-0-------4-----------|
PM ** ** * ** ** *         ** ** * ** ** * 
Добавлено: 02.06.2013
Другие материалы по этой песне:
  • Аккорды и текст

Страница создана 02.06.2013
http://primanota.ru/washya/down-below-a-devils-canyon-chords.htm
Привет, Гость.
Предлагаем пройти революционный курс по гитаре.
Подарок от PrimaNota.Ru, забирай!