PrimaNota.ru - самый крупный в мире бесплатный архив песенных текстов, аккордов, табулатур и нот


Washya - Burn The City To Ashes - таба

Регистрация Запомнить меня
Войти через:  Facebook Google Twitter Vk Yandex Mail.ru

Washya - Burn The City To Ashes - таба

Печатать
Просмотров: 57
-----------------------------------------------------------------------------
   Burn The City To Ashes - Washya
-----------------------------------------------------------------------------
Tuning: Drop B (BF#BEG#C#) 
Intro
B|---------------------------------------------|
F#|--------------------------------------------|
B|---------------------------------------------|
E|-----4\3-----------8\7----4\3----------------|
G#|-00-2\1-5h6p5-0-3-6\5-00-2\1-3h5p3-0-1-0000-|
C#|-00-----5h6p5-0-3-----00-----3h5p3-0-1-0000-|
PM  **                   **               **** 

Verses
B|-------------------------------------------------|
F#|------------------------------------------------|
B|-------------------------------------------------|
E|-------------------3p2---------------------1h2p1-|
G#|----3p2-----------------6p5-----------1-3-------|
C#|-00-----0-1-0-3-0-----0-----0-1-0-3-0-----------|
PM  **     * * * * *     *     * * * * *   

Chorus
B|------------------------------------------------------------|
F#|-----------------------------------------------------------|
B|------------------------------------------------------------|
E|------3/4\3-----------8\7---------8\7\6---------------------|
G#|-7-6-1/2\1-1-5-4-3-x-6\5-6h7p6-3-6\5\4-0-1-0-3-0-765-x-321-|
C#|-7-6-------1-5-4-3-x-----6h7p6-3-------0-1-0-3-0-765-x-321-|
Добавлено: 05.10.2013
Другие материалы по этой песне:
  • Аккорды и текст

Страница создана 05.10.2013
http://primanota.ru/washya/burn-the-city-to-ashes-chords.htm
Привет, Гость.
Предлагаем пройти революционный курс по гитаре.
Подарок от PrimaNota.Ru, забирай!