PrimaNota.ru - самый крупный в мире бесплатный архив песенных текстов, аккордов, табулатур и нот


Washya - Burrrrrn - таба

Регистрация Запомнить меня
Войти через:  Facebook Google Twitter Vk Yandex Mail.ru

Washya - Burrrrrn - таба

Печатать
Просмотров: 71
-----------------------------------------------------------------------------
                         Burrrrrn - Washya
-----------------------------------------------------------------------------
Tuning: Drop D (DADGBE)
Intro
E|-------------------------|
B|-------------------------|
G|-------------------------|
D|-----------------------5-|
A|-00-2p1h2p1p0-0-00-3h4-3-|
D|-00-2p1h2p1p0-0-00-3h4---|
PM ** ********* * **   

Main Riff/Chorus
E|--------------------------------------------------------------------------|
B|--------------------------------------------------------------------------|
G|---------------------------------------------------2p0--------------------|
D|-----------2p0-------------------------------3p2p0-----2h3-3p2p0h2--------|
A|-----3p2p0-----2h3-3p2p0---3p2p0h2p0h2p0---------------------------3p2p0--|
D|-0-0-------------------------------------0-0------------------------------|
PM * *                                     * * 


E|----------------------------------------------------------------------|
B|----------------------------------------------------------------------|
G|----------------------------------------------------------------------|
D|-------------7p5p4---4h5h7p5p4---44h7p5p4----------2p0----------------|
A|-------------------7-----------7----------7\-0h2p0-----2p0------------|
D|-3p2p0h2-0-0-----------------------------------------------3p2p0-1p00-|
PM         * *                                                       ** 

Verses (Palm mute all)
E|-----------------------------------------------------------------------|
B|-----------------------------------------------------------------------|
G|-----------------------------------------------------------------------|
D|-55555-5555-5555------------------------------4-4444-4-4444------------|
A|-33333-3333-3333-55555-555-5-5-5-5-1-1-11111--2-2222-2-2222-222-2-2222-|
D|-----------------55555-555-5-5-5-5-1-1-11111----------------222-2-2222-|
PM ***** **** **** ***** *** * * * * * * *****  * **** * **** *** * **** 

Guitar Solo (Steady Pace)
E|--------------------------------------------------------------------|
B|-----------------------------------------------------------------2b-|
G|--9b-7---7---7~---7---7-7h9b~-9p7------------------------2h4p2p0----|
D|-------9---9----9---9-------------10p9p7---7h9-------2h4------------|
A|-----------------------------------------9-----7p6p4----------------|
D|--------------------------------------------------------------------|

E|----------------------------------------12-13-15b~\--|
B|-7h8----------------------------10b~-10--------------|
G|-----10p8p7-------------------7----------------------|
D|------------9p8p7-----7h8h9--------------------------|
A|------------------7h9-------9------------------------|
D|-----------------------------------------------------|
Добавлено: 02.08.2013
Другие материалы по этой песне:
  • Аккорды и текст

Страница создана 02.08.2013
http://primanota.ru/washya/burrrrrn-chords.htm
Привет, Гость.
Предлагаем пройти революционный курс по гитаре.
Подарок от PrimaNota.Ru, забирай!