PrimaNota.ru - самый крупный в мире бесплатный архив песенных текстов, аккордов, табулатур и нот


Washya - Bypass Blocker - таба, видео

Регистрация Запомнить меня
Войти через:  Facebook Google Twitter Vk Yandex Mail.ru

Washya - Bypass Blocker - таба, видео

Печатать
Просмотров: 57
-----------------------------------------------------------------------------
              Bypass Blocker - Washya
-----------------------------------------------------------------------------
Tuning: B Standard 7 string (BEADGBE)
Intro
E|---------------------------------|
B|---------------------------------|
G|---------------------------------|
D|---------------------------------|
A|---------------------------------|
E|---------------------------------|
B|-333-3-333-3-6\5-333-3-333-3-6\5-|x10
PM ... . ... .     ... . ... .   

Part 2
E|--------------------------------|
B|--------------------------------|
G|--------------------------------|
D|--------------------------------|
A|--------------------------------|
E|-555-5-555-5-8\7-22-5-2-6-2-5\3-|
B|-333-3-333-3-6\5-00-3-0-4-0-3\1-|
PM *** * *** *     **   *   * 

Part 3
E|--------------------------------|
B|--------------------------------|
G|--------------------------------|
D|--------------------------------|
A|---------33---------55----------|
E|-22-5545-11-22-5545-33-22-55445-|
B|-00-3323----00-3323----00-33223-|x10

Part 4
E|------1---1------2--------2-----|
B|--------0----------0--------3---|
G|--------------------------------|
D|------------------------------0-|
A|--------------------------------|
E|-0000-------0000-----0000-------|
B|--------------------------------|
PM ****       ****     **** 

Part 5
E|------------------------------------------------|
B|------------------------------------------------|
G|------------------------------------------------|
D|------------------------------------------------|
A|------------------------------------------------|
E|-4/5\4/8\7--4/5\4/8\7--6/7\6-10-9-8--6/7\6-10-9-|
B|-2/3\2/6\5--2/3\2/6\5--4/5\4-8--7-6--4/5\4-8--7-|x4

Part 6
E|----------------------------------------------|
B|----------------------------------------------|
G|----------------------------------------------|
D|----------------------------------------------|
A|----------------------------------------------|
E|-4444/5\44/7--4444/5\44/7--4444/5\44/7--------|
B|-2222h3p22/5--2222h3p22/5--2222h3p22/5-55-555-|
PM                                       .. ... 

Song
Intro
part 2 x3
part 3
part 4 x5
part 5 x4 (chorus riff)
part 6 x3
Part 4
Part 2 
Part 5 x4
Intro
 
 
Добавлено: 04.07.2013
Другие материалы по этой песне:
  • Аккорды и текст

Страница создана 04.07.2013
http://primanota.ru/washya/bypass-blocker-chords.htm
Привет, Гость.
Предлагаем пройти революционный курс по гитаре.
Подарок от PrimaNota.Ru, забирай!