PrimaNota.ru - самый крупный в мире бесплатный архив песенных текстов, аккордов, табулатур и нот


Vulfpeck - Beastly - бас-таба, видео

Регистрация Запомнить меня
Войти через:  Facebook Google Twitter Vk Yandex Mail.ru

Vulfpeck - Beastly - бас-таба, видео

Печатать
Просмотров: 123
Авторы музыки: Woody Goss, Jack Stratton, Theo Katzman, Joe Dart

-------------------------------------------------------------------------------
                             Beastly - Vulfpeck
-------------------------------------------------------------------------------
Tabbed by: 
E-mail: 

Tuning: EADG

Intro/Main Part:
G|------------5-6-7--------5-6-7--------------5-----|
D|------------------7------------7------5-6-7---7---|
A|---3s5-5------------5------------5----------------|
E|--------------------------------------------------|

G|---5-6-7--------5-6-7------------------------------------|
D|---------7------------7----------55------------55--------|
A|-----------5------------5----5s7----3s5----5s7----7p5----|
E|----------------------------------------8------------8---|

Bass Solo 1:
Use D minor [10th fret] pentatonic scale for Improvisation

G|---10h12-10-------------------4------5----(7)---|
D|------------12p10-------------------------------|
A|------------------12--------2---22s3---4-5------|
E|------------------------------------------------|

G|---5-----5-6-7----5-----5-6-7-------------(7)----555---5-6-7-------|
D|-------------------------------3s5--3----------------7-------------|
A|-----5-3------------5-3---------------3s5--------------------3s5---|
E|-------------------------------------------------------------------|

G|---10s12--12s12-------------------------------------------|
D|----------------12----------------------------------------|
A|----------------------15--14--13--12----------------------|
E|--------------------------------------80505050505050505---|

Main Part:
G|------------5-6-7--------5-6-7--------------5-----|
D|------------------7------------7------5-6-7---7---|
A|---3s5-5------------5------------5----------------|
E|--------------------------------------------------|
                                                                 x2
G|---5-6-7--------5-6-7------------------------------------|
D|---------7------------7----------55------------55--------| 
A|-----------5------------5----5s7----3s5----5s7----7p5----|
E|----------------------------------------8------------8---|

Bass Solo 2: 
:O

Main Part:
G|------------5-6-7--------5-6-7--------------5-----|
D|------------------7------------7------5-6-7---7---|
A|---3s5-5------------5------------5----------------|
E|--------------------------------------------------|
                                                                 x2
G|---5-6-7--------5-6-7------------------------------------|
D|---------7------------7----------55------------55--------| 
A|-----------5------------5----5s7----3s5----5s7----7p5----|
E|----------------------------------------8------------8---|

Bridge:
G|---------------2---3-4-5---|
D|-----------4-5-------------|
A|---3-5-6-------------------| x4
E|---------------------------|

Main Part:
G|------------5-6-7--------5-6-7--------------5-----|
D|------------------7------------7------5-6-7---7---|
A|---3s5-5------------5------------5----------------|
E|--------------------------------------------------|
                                                                 x2
G|---5-6-7--------5-6-7------------------------------------|
D|---------7------------7----------55------------55--------| 
A|-----------5------------5----5s7----3s5----5s7----7p5----|
E|----------------------------------------8------------8---|

Bass Solo 3:
:O

Main Part:
G|------------5-6-7--------5-6-7--------------5-----|
D|------------------7------------7------5-6-7---7---|
A|---3s5-5------------5------------5----------------|
E|--------------------------------------------------|
                                                                 x2
G|---5-6-7--------5-6-7------------------------------------|
D|---------7------------7----------55------------55--------| 
A|-----------5------------5----5s7----3s5----5s7----7p5----|
E|----------------------------------------8------------8---|

Bridge:
G|---------------2---3-4-5---|
D|-----------4-5-------------|
A|---3-5-6-------------------| x4
E|---------------------------|
 
Main Part:
G|------------5-6-7--------5-6-7--------------5-----|
D|------------------7------------7------5-6-7---7---|
A|---3s5-5------------5------------5----------------|
E|--------------------------------------------------|
                                                                 x2
G|---5-6-7--------5-6-7------------------------------------|
D|---------7------------7----------55------------55--------| 
A|-----------5------------5----5s7----3s5----5s7----7p5----|
E|----------------------------------------8------------8---|

| /  slide up
| \  slide down
| h  hammer-on
| p  pull-off
| ~  vibrato
| +  harmonic
| x  Mute note
===============================================================================
Добавлено: 14.08.2015
Другие материалы по этой песне:
  • Аккорды и текст

Страница создана 14.08.2015
http://primanota.ru/vulfpeck/beastly-chords.htm
Привет, Гость.
Предлагаем пройти революционный курс по гитаре.
Подарок от PrimaNota.Ru, забирай!