PrimaNota.ru - самый крупный в мире бесплатный архив песенных текстов, аккордов, табулатур и нот


Vulfpeck - Christmas In La - бас-таба, видео

Регистрация Запомнить меня
Войти через:  Facebook Google Twitter Vk Yandex Mail.ru

Vulfpeck - Christmas In La - бас-таба, видео

Печатать
Просмотров: 82
|-------------------------------------------------------------------------------
                         CHRISTMAS IN L.A. - Vulfpeck
-------------------------------------------------------------------------------
Tabbed by: Wout
E-mail: wout.lenders@gmail.com

Tuning: Eb Ab Db Gb

Intro
Gb|----------------------------------------|    |------------------------------|
Db|----------------------------------------|    |----------9-10-----------7-7--|
Ab|-5----5-5--5-5----5-5--5-5--(5)---------| x3 |-/9-10-12--------10\--5-------|
Eb|-------------------------------2--3--5--|    |------------------------------|

Verse 1
Gb|----------------------------------------|    |------------------------------|
Db|-------------------------------4--5--7--|    |----------9-10-----------7-7--|
Ab|-5----5-5--5-5----5-5--5-5--(5)---------| x3 |-/9-10-12--------10\--5-------|
Eb|----------------------------------------|    |------------------------------|

Chorus
Gb|-------------------------|-------------------------|-------------------------|----------------------------|
Db|-10-----9------10---9----|-10-----9------10---7----|-10-----9------10---9----|-10-----9-----10--------7-7-|
Ab|----9-----7-------9---7--|----9-----7-------9---5--|----9-----7-------9---7--|----9-----7------10\--5-----|
Eb|-------------------------|-------------------------|-------------------------|----------------------------|

Verse 2
Gb|----------------------------------------|    |-----------------------------|
Db|----------------------------------------|    |----------9-10---------------|
Ab|-5----5-5--5-5----5-5--5-5--(5)---------| x3 |-/9-10-12--------10\--5------|
Eb|-------------------------------2--3--5--|    |--------------------------2--|

Bridge
Gb|----------------------------------------------------|--------------|--------------|--------------------|
Db|----------------------------------------------------|--------------|--------------|--------------------|
Ab|---------------------------------------------9------|--------------|--------------|--------------------|
Eb|-3-----0--1--2\----4--5--6\---6-6--4--6--7-----7-5--|-3--2--0------|-3--2--0------|-3--2--0----0--5----|

Verse 3
Gb|---------------------------------------|    |------------------------------|
Db|------------------------------4--5--7--|    |----------9-10-----------7-7--|
Ab|-5----5-5--5-5----5-5--5-5-------------| x3 |-/9-10-12--------10\--5-------|
Eb|---------------------------------------|    |------------------------------|

Outro
Gb|----------------------------------------------------|
Db|----------------------------------------------------|
Ab|-5----5-----5----5--5-----5----5--5-7---------------|
Eb|--------7-5---(5)-----7-5---(5)-------5-(0)-2--3--5-|

Gb|-----------------------------------------------------|
Db|----------------------------------4-7----------------|
Ab|--5----5-----5----/9--7-5---5---5-----5--------------|
Eb|---------7-5---(5)--------7--------------7-5-2--3--5-|

Gb|---------------7----9-10-11-10-9-7----7---7/8\7-------------|
Db|-----------7-9----9-----------------9---9-------9-7---------|
Ab|-5---7-8-9--------------------------------------------------|
Eb|----------------------------------------------------2--3--5-|

Gb|-------------------------------------------------------------------|
Db|-----------------------------------------------------0-4-----5---7-|
Ab|-5-----5-----5----5---5-----5----5---5/6\5-------------------------|
Eb|----(5)--7-5----5---5---7-5----5---5--------5-7----2-----2-3---5---|

Gb|------------------------------------------------------|
Db|------------------------------------------------------|
Ab|-5-----5-----5----7-8-9-8-7-5----5---5----------------|
Eb|----(5)--7-5----5--------------5---5----5-7---2--3--5-|

Gb|--------------7--4-7-4-7-4---------------------------|
Db|----------7-9--------------7-------------------------|
Ab|-5---/7-9--------------------5----5--5b--------------|
Eb|--------------------------------5--------7-5-2--3--5-|

Gb|-----------------------------------------------------|
Db|-----------------------------------------------------|
Ab|-5-----5-----5----5---5-----5--------5---------------|
Eb|----(5)--7-5----5---5---7-5----5-7-5---7-5-3-2--3--5-|

Gb|-----------------------------------------------------|---|
Db|-----------------------------------------------------|---|
Ab|-5-----5-----5--------5-----5----5---5---------------|-5-|
Eb|-----5---7-5----5-7-5---7-5----5---5---7-5---2--3--5-|---|


| /  slide up
| \  slide down
| h  hammer-on
| p  pull-off
| ~  vibrato
| +  harmonic
| x  Mute note
===============================================================================
Добавлено: 04.06.2016
Другие материалы по этой песне:
  • Аккорды и текст

Страница создана 04.06.2016
http://primanota.ru/vulfpeck/christmas-in-la-chords.htm
Привет, Гость.
Предлагаем пройти революционный курс по гитаре.
Подарок от PrimaNota.Ru, забирай!