PrimaNota.ru - самый крупный в мире бесплатный архив песенных текстов, аккордов, табулатур и нот


Vulfpeck - Fugue State - аккорды и текст, видео

Регистрация Запомнить меня
Войти через:  Facebook Google Twitter Vk Yandex Mail.ru

Vulfpeck - Fugue State - аккорды и текст, видео

Печатать
Просмотров: 52
Новый альбом группы 'Черный Кузнец' по культовому сериалу 'Сверхъестественное'!
Fugue State
Vulfpeck
[Intro]
e|----------------------------------|
B|-8-------8-------8-------8-8-7-6--|
G|---7---7---7---7---7---7----------|
D|-----8-------8-------8------------|
A|----------------------------------|
E|----------------------------------|

[Verse]
e|-15-15-15-15-15-15-15-15-|
B|-------------------------|
G|-------------------------|
D|-12-12-12-12-12-12-12-12-|
A|-------------------------|
E|-------------------------|

e|----------------------------------|-15-15-15-15-15-15-15-15-|
B|----------------------------------|-------------------------|
G|-5-3---3-5-------5/7\5-3-5/7\5----|-------------------------|
D|-----5----------------------------|-12-12-12-12-12-12-12-12-|
A|----------------------------------|-------------------------|
E|----------------------------------|-------------------------|

e|----------------------------------|----6----6-------4----4--|
B|----------------------------------|-------------------------|
G|-5-3---5-3-------5/7\5-3-5/7\5----|-7~---7~---7\(5)---5-----|
D|-----5----------------------------|-------------------------|
A|----------------------------------|-------------------------|
E|----------------------------------|-------------------------|

e|----------------------------------|-----6----8/10-----6-----4---|
B|----3------1-------3-------1------|-------------------------4---|
G|----3------2-------3-------2------|--7----7--8/10--7----7---5---|
D|----5------3-------5-------3------|-----------------------------|
A|----------------------------------|-----------------------------|
E|----------------------------------|-----------------------------|

e|---------------------|
B|-3-----1-----3-----1-|
G|-3-----2-----3-----2-|
D|-5-----3-----5-----3-|
A|---------------------|
E|---------------------|

[Solo]
e|-------------------------------------|----------------------------------------------|
B|---3---------------------------------|---------------------------4p3p2--------------|
G|-5---5-3-2-3--------------5-6---5-3--|------2-2-----2h3----------------1------------|
D|-------------0-1-2----3-6-----5------|--3-5-----3h5-----0-0-1-1----------3-2-3-3-4--|
A|-------------------------------------|----------------------------------------------|
E|-------------------------------------|----------------------------------------------|

e|-------------------------------1-2---|-----------------------------4h6-----3---4----|
B|-----------------3-4-2-------2-------|--3---4---6---7--------6-----4-------2--------|
G|-1-3-1-----3---3---------4-3---------|----1------------------6-----6-----------4----|
D|-------------4-----------------------|--------4---3----------6-----4----------------|
A|-------1---------------4-------------|----------------6------4----------------------|
E|-------------------------------------|----------------------------------------------|

e|-------------------|
B|--4----------------|
G|----3---3----------|
D|------5---6---6----|
A|------------7---6--|
E|-------------------|

e|--15-15-15-15-15-15-15-15------------|------------------------------|
B|-------------------------------------|------------------------------|
G|-------------------------------------|--5-3---3-5----5/7\5-3-5/7\5--|
D|--12-12-12-12-12-12-12-12------------|------5-----------------------|
A|-------------------------------------|------------------------------|
E|-------------------------------------|------------------------------|

e|--15-15-15-15-15-15-15-15------------|------------------------------|
B|-------------------------------------|------------------------------|
G|-------------------------------------|-5-3---3-5-----5/7\5-3-5/7\5--|
D|--12-12-12-12-12-12-12-12------------|-----5------------------------|
A|-------------------------------------|------------------------------|
E|-------------------------------------|------------------------------|

[Bridge]
e|--6---6---6---6---6---6----|--6---6---6---6---6---6---|
B|--6---7---8---6---7---8----|--6---7---8---6---7---8---|
G|---------------------------|--7---7---8---7---7---8---|
D|---------------------------|--------------------------|
A|---------------------------|--------------------------|
E|---------------------------|--------------------------|

[Verse]
e|-15-15-15-15-15-15-15-15-|----------------------------|
B|-------------------------|----------------------------|
G|-------------------------|--5-3---3-5---5/7\5-3-5/7\5-|
D|-12-12-12-12-12-12-12-12-|------5---------------------|
A|-------------------------|----------------------------|
E|-------------------------|----------------------------|

e|-15-15-15-15-15-15-15-15-|----------------------------|
B|-------------------------|----------------------------|
G|-------------------------|--5-3---3-5---5/7\5-3-5/7\5-|
D|-12-12-12-12-12-12-12-12-|------5---------------------|
A|-------------------------|----------------------------|
E|-------------------------|----------------------------|


************************************

| /  Slide up
| \  Slide down
| ~  Vibrato
| p  Pull-off
| h  Hammer-on

************************************
Добавлено: 19.02.2018
Вам также может быть интересно:
Другие материалы по этой песне:
  • Аккорды и текст

Страница создана 19.02.2018
http://primanota.ru/vulfpeck/fugue-state-chords.htm
Привет, Гость.
Предлагаем пройти революционный курс по гитаре.
Подарок от PrimaNota.Ru, забирай!