PrimaNota.ru - самый крупный в мире бесплатный архив песенных текстов, аккордов, табулатур и нот


Vulfpeck - Dean Town - бас-таба, видео

Регистрация Запомнить меня
Войти через:  Facebook Google Twitter Vk Yandex Mail.ru

Vulfpeck - Dean Town - бас-таба, видео

Печатать
Просмотров: 68
Новый альбом группы 'Черный Кузнец' по культовому сериалу 'Сверхъестественное'!
[Main Theme}

G|---------|----------------2----2----------|--------------------------------|
D|-----1---|-2-1-----------------------2----|-2-4---2---2h4---2--------2-----|
A|---2---4-|----4-0------------------4---4--|---------4--------------4-------|
E|---------|--------2-----------------------|--------------------------------|

G|-------------------------|--------------------------|----------------------|
D|---------------------2---|--4-2-------------2-------|------------9---------|
A|-4-2---------2---2-4-----|--------x-2---4-------4-2-|4-----5-6-7---7-------|
E|-----5-4-------5---------|--------------------------|----------------------|


G|--6---7-6------------|------------9--------7---6--5------------------------|
D|----9-----9------4---|--5-6-7-8-9-----(7)----------------------------------|
A|------------7------7-|-----------------------------------------------------|
E|---------------------|-----------------------------------------------------|

G|--4---------------------------|--------------------------------------------|
D|----4----------4---6-4--------|-----4-4--6-4----4----2-------3-------------|
A|------2----4-6------------4-2-|-4-6----------6-----------------------------|
E|------------------------------|--------------------------------------------|


G|-----2h4-2--------------------|--------------------------------------------|
D|---4--------4-2-4~------------|--------------------------------------------|
A|------------------------------|-----------------------------------2-3------|
E|------------------------------|----2------2-----2--------------------------|

G|------------------------------|--------------------------------------------|
D|------------------------------|--2-----------------------------------------|
A|-----4--------2h4---------4-2-|----4-2-------------------------2-2---------|
E|-----------4------------------|--------4-0--0-0-0-2-2-2-4-4-4--------------|


G|------------------|--------------------------------------------------------|
D|-----2------------|-------------4----6-4-----------------------------------|
A|-2-4---4-----2----|-2---4-2-4-6-------------4-2----------------------------|
E|---------------5--|--------------------------------------------------------|
                     
G|--------------------------------|------------------------------------------|
D|-------4-4-6-4---6-4------------|2-1---------------------------------------|
A|---4-6---------6-----6-4-6-6-6--|----4-0-----------------------------------|
E|--------------------------------|--------2---------------------------------|


************************************

| x   Dead note
| (n) Ghost note
| h   Hammer-on
| ~   Vibrato


************************************
Добавлено: 19.02.2018
Другие материалы по этой песне:
  • Аккорды и текст

Страница создана 19.02.2018
http://primanota.ru/vulfpeck/dean-town-chords.htm
Привет, Гость.
Предлагаем пройти революционный курс по гитаре.
Подарок от PrimaNota.Ru, забирай!