PrimaNota.ru - самый крупный в мире бесплатный архив песенных текстов, аккордов, табулатур и нот


Vulfpeck - 1612 - таба, бас-таба, видео

Регистрация Запомнить меня
Войти через:  Facebook Google Twitter Vk Yandex Mail.ru

Vulfpeck - 1612 - таба, бас-таба, видео

Печатать
Просмотров: 75
-------------------------------------------------------------------------------
                             SONG NAME - Band Name
-------------------------------------------------------------------------------
Tabbed by: Jack McMurtrie
Tuning: EADG

This is the main riff behind the song, bass play the same thing as well.

E|----------------------------------------------------------------|
B|----------------------------------------------------------------|
G|----------------------------------------------------------------|
D|-----------------------------2----------------3-3---------------|
A|-----------3---5---3--------------------------------0--1--2--5--|
E|---3---5----------------------------0---1-1---------------------|

E|--------------------------------------------|
B|--------------------------------------------|
G|--------------------------------------------|
D|-------------2--------------3-3-------------|  <-- repeat this
A|---3-3---------------------------0--1--2--5-| 
E|--------------------0---1-1-----------------|

| /  slide up
| \  slide down
| h  hammer-on
| p  pull-off
| ~  vibrato
| +  harmonic
| x  Mute note
===============================================================================
Добавлено: 12.11.2014
Другие материалы по этой песне:
  • Аккорды и текст

Страница создана 12.11.2014
http://primanota.ru/vulfpeck/1612-chords.htm
Привет, Гость.
Предлагаем пройти революционный курс по гитаре.
Подарок от PrimaNota.Ru, забирай!