PrimaNota.ru - самый крупный в мире бесплатный архив песенных текстов, аккордов, табулатур и нот


Volbeat - Pearl Heart - таба, видео

Регистрация Запомнить меня
Войти через:  Facebook Google Twitter Vk Yandex Mail.ru

Volbeat - Pearl Heart - таба, видео

Печатать
Просмотров: 147
Уроки эстрадного вокала в Санкт-Петербурге
One of my fave songs to listen to and play hope you all enjoy!!!

Tuning: E-Standard


Intro:

Guitar 1:

e|------------------------------------------------------------------------------------------------|
B|------------------------------------------------------------------------------------------------|
G|-------------7-----------------------------------7----------------------------------------------|
D|--5---5-5----7------------------------5---5-5----7----7777777777777777--------------------------|
A|--5---5-5----5------------------------5---5-5----5----7777777777777777--------------------------|
E|--3---3-3-----------------------------3---3-3---------5555555555555555--------------------------|

Guitar 2:

e|------------------------------------------------------------------------------------------------|
B|------------------------------------------------------------------------------------------------|
G|---------------------7-9-7-9/11-9-7-------------------------------------------------------------|
D|-----------------7h9----------------------------------------------------------------------------|
A|------------------------------------------------------------------------------------------------|
E|------------------------------------------------------------------------------------------------|

Main Riff:

Guitar 1:

e|----------------------------------|     |-------------------------------|
B|----------------------------------|     |-------------------------------|
G|--7-------------------------------| X4  |--7--------7-7--7-7-7----------|
D|--7---X16---5--------7------------|     |--7--------7-7--7-7-7----------|
A|--5---------5---X9---7---X7-------|     |--5--------5-5--5-5-5----------|
E|------------3--------5------------|     |-------------------------------|

Guitar 2:

e|------------------------------------------------------------------------------------------------|
B|------------------------------------------------------------------------------------------------|
G|--9h11-11p9-11-9-11-9-11-9h11p9-----------------------------------------------------------------|
D|--------------------------------11---11h12-12-12-12--12-12--7-7h9-7-----------------------------|
A|------------------------------------------------------------------------------------------------|
E|------------------------------------------------------------------------------------------------|

e|------------------------------------------------------------------------------------------------|
B|------------------------------------------------------------------------------------------------|
G|--9h11-11p9-11-9-11-9-11-9h11p9-----------------------------------------------------------------|
D|--------------------------------11---11h12-12-12-12--12-12/14-14-14-14-14-12-11-----------------|
A|------------------------------------------------------------------------------------------------|
E|------------------------------------------------------------------------------------------------|

Verse:

e|------------------------------------------------------------------------------------------------|
B|------------------------------------------------------------------------------------------------|
G|------------------------------------------------------------------------------------------------|
D|--------------------------------------------------------7777777777777777------------------------|
A|--9999999999999999--7777777777777777--5555555555555555--5555555555555555--7777777777777777------|
E|--7777777777777777--5555555555555555--3333333333333333--------------------5555555555555555------|
    ................  ................  ................  ................  ................

e|------------------------------------------------------------------------------------------------|
B|------------------------------------------------------------------------------------------------|
G|------------------------------------------------------------------------------------------------|
D|--------------------------------------------------------7-7-7-7-7-7-7-7-------------------------|
A|--9999999999999999--7777777777777777--5555555555555555--7-7-7-7-7-7-7-7-------------------------|
E|--7777777777777777--5555555555555555--3333333333333333--5-5-5-5-5-5-5-5-------------------------|
    ................  ................  ................

Chorus:

Guitar 1:

e|----------------------------------|     
B|----------------------------------|     
G|--7-------------------------------| X4  
D|--7---X16---5--------7------------|     
A|--5---------5---X9---7---X7-------|     
E|------------3--------5------------|     

Guitar 2:

e|-------------------------------------------------------------|
B|----7---8--7---7----8---10--8---7----------------------------|
G|--7---7------7----7---7-------7------------------------------| X4
D|-------------------------------------------------------------|
A|-------------------------------------------------------------|
E|-------------------------------------------------------------|

Interlude:

e|------------------------------------------------------------------------------------------------|
B|------------------------------------------------------------------------------------------------|
G|------------------------------------------------------------------------------------------------|
D|------4-----4-----5-----5-----5h7------7-----7-----7h9p7-5-4-5-4-4h5----------------------------|
A|--5-5---5-5---5-5---5-5---5-5------5-5---5-5---5-5----------------------------------------------|
E|------------------------------------------------------------------------------------------------|
    . .   . .   . .   . .   . .      . .   . .   . .       . . . .

e|------------------------------------------------------------------------------------------------|
B|------------------------------------------------------------------------------------------------|
G|---------------------------------------------------6h7p6-----6h7--------------------------------|
D|------4-----4-----5-----5-----5h7------7-----7-----------7-5-----5------------------------------|
A|--5-5---5-5---5-5---5-5---5-5------5-5---5-5---5-5----------------------------------------------|
E|------------------------------------------------------------------------------------------------|
    . .   . .   . .   . .   . .      . .   . .   . .

Verse:

e|------------------------------------------------------------------------------------------------|
B|------------------------------------------------------------------------------------------------|
G|------------------------------------------------------------------------------------------------|
D|--------------------------------------------------------7777777777777777------------------------|
A|--9999999999999999--7777777777777777--5555555555555555--5555555555555555--7777777777777777------|
E|--7777777777777777--5555555555555555--3333333333333333--------------------5555555555555555------|
    ................  ................  ................  ................  ................

e|------------------------------------------------------------------------------------------------|
B|------------------------------------------------------------------------------------------------|
G|------------------------------------------------------------------------------------------------|
D|--------------------------------------------------------7-7-7-7-7-7-7-7-------------------------|
A|--9999999999999999--7777777777777777--5555555555555555--7-7-7-7-7-7-7-7-------------------------|
E|--7777777777777777--5555555555555555--3333333333333333--5-5-5-5-5-5-5-5-------------------------|
    ................  ................  ................

Chorus:

Guitar 1:

e|----------------------------------|     
B|----------------------------------|     
G|--7-------------------------------| X4  
D|--7---X16---5--------7------------|     
A|--5---------5---X9---7---X7-------|     
E|------------3--------5------------|     

Guitar 2:

e|-------------------------------------------------------------|
B|----7---8--7---7----8---10--8---7----------------------------|
G|--7---7------7----7---7-------7------------------------------| X4
D|-------------------------------------------------------------|
A|-------------------------------------------------------------|
E|-------------------------------------------------------------|

Interlude:

Guitar 1:

e|------------------------------------------------------------------------------------------------|
B|------------------------------------------------------------------------------------------------|
G|-------------7-----------------------------------7----------------------------------------------|
D|--5---5-5----7------------------------5---5-5----7----------------------------------------------|
A|--5---5-5----5------------------------5---5-5----5----7-7-7--7-7--77777777----------------------|
E|--3---3-3-----------------------------3---3-3---------5-5-5--5-5--55555555----------------------|
                                                        . . .  . .  ........
Guitar 2:

e|------------------------------------------------------------------------------------------------|
B|------------------------------------------------------------------------------------------------|
G|---------------------7-9-7-9/11-9-7-------------------------------------------------------------|
D|-----------------7h9----------------------------------------------xxxxxxxx----------------------|
A|------------------------------------------------------------------xxxxxxxx----------------------|
E|------------------------------------------------------------------xxxxxxxx----------------------|

Solo:

Guitar 1:

e|------------------------------------------------------------------------------------------------|
B|------------------------------------------------------------------------------------------------|
G|------------------------------------------------------------------------------------------------| X2
D|--9---------5---------7-------------------------------------------------------------------------|
A|--9---X32---5---X16---7---X16-------------------------------------------------------------------|
E|--7---------3---------5-------------------------------------------------------------------------|

Guitar 2:

e|--------------------------------------------------------7/9-10-9--------------------------------|
B|------------------------------------------8-7----8-7-------------10-----------------------------|
G|--7------7-----11-----------------------7-----7------7------------------------------------------|
D|-----7----h9------12--12-12-12p11-9-9-----------------------------------------------------------|
A|------h9----------------------------------------------------------------------------------------|
E|------------------------------------------------------------------------------------------------|

e|------------------------------------------/17-15-/15-14--------/12-/14--------------------------|
B|--12-12-12h14-15-12---15---12-10h12-12------------------15-------------15-14h15-15--------------|
G|-----------------------------------------------------------14-----------------------------------|
D|------------------------------------------------------------------------------------------------|
A|------------------------------------------------------------------------------------------------|
E|------------------------------------------------------------------------------------------------|

Interlude:

Guitar 1:

e|------------------------------------------------------------------------------------------------|
B|------------------------------------------------------------------------------------------------|
G|-------------7-----------------------------------7----------------------------------------------|
D|--5---5-5----7------------------------5---5-5----7----------------------------------------------|
A|--5---5-5----5------------------------5---5-5----5----777-7-7-7-7-7-7---------------------------|
E|--3---3-3-----------------------------3---3-3---------555-5-5-5-5-5-5---------------------------|
     
Guitar 2:                                                   ... . . . . . .

e|------------------------------------------------------------------------------------------------|
B|------------------------------------------------------------------------------------------------|
G|---------------------7-9-7-9/11-9-7-------------------------------------------------------------|
D|-----------------7h9----------------------------------------------------------------------------|
A|------------------------------------------------------------------------------------------------|
E|------------------------------------------------------------------------------------------------|

Main Riff:

Guitar 1:

e|----------------------------------|     |-------------------------------|
B|----------------------------------|     |-------------------------------|
G|--7-------------------------------| X4  |--7----------------------------|
D|--7---X16---5--------7------------|     |--7----------------------------|
A|--5---------5---X9---7---X7-------|     |--5----------------------------|
E|------------3--------5------------|     |-------------------------------|

Guitar 2:

e|------------------------------------------------------------------------------------------------|
B|------------------------------------------------------------------------------------------------|
G|--9h11-11p9-11-9-11-9-11-9h11p9-----------------------------------------------------------------|
D|--------------------------------11---11h12-12-12-12--12-12--7-7h9-7-----------------------------|
A|------------------------------------------------------------------------------------------------|
E|------------------------------------------------------------------------------------------------|

e|------------------------------------------------------------------------------------------------|
B|------------------------------------------------------------------------------------------------|
G|--9h11-11p9-11-9-11-9-11-9h11p9-----------------------------------------------------------------|
D|--------------------------------11---11h12-12-12-12--12-12/14-14-14-14-14-12-11-----------------|
A|------------------------------------------------------------------------------------------------|
E|------------------------------------------------------------------------------------------------|


Thans for viewing!!!!!
Добавлено: 06.12.2013
Другие материалы по этой песне:
  • Аккорды и текст

Страница создана 06.12.2013
http://primanota.ru/volbeat/pearl-heart-chords.htm
Привет, Гость.
Предлагаем пройти революционный курс по гитаре.
Подарок от PrimaNota.Ru, забирай!