PrimaNota.ru - самый крупный в мире бесплатный архив песенных текстов, аккордов, табулатур и нот


Volbeat - Room 24 - таба, видео

Регистрация Запомнить меня
Войти через:  Facebook Google Twitter Vk Yandex Mail.ru

Volbeat - Room 24 - таба, видео

Печатать
Просмотров: 164
Room 24

Tuning: D G C F A D

Intro/Outro

|---------------------------------------------------------------------------|
|---------------------------------------------------------------------------|
|---------------------------------------------------------------------------|
|---------------------------------------------------------------------------|
|-5--5-7-8-5-4-------------------5--5-7-8-5-4h5p4h5p4h5p4h5-----------------|
|-3--3-5-6-3-2--2h3p2h3p2h3p2h3--3--3-5-6-3-----------------2h3p2h3p2h3p2h3-|

(PM  - - - -                        - - - -)

|---|-----------------------------------------------------------------|
|---|-----------------------------------------------------------------|
|---|-----------------------------------------------------------------|
|---|-----------------------------------------------------------------|
|-5-|-4------4------4-5-4------4-4-5-7-5-4------4------4----4-5-7-5-7-|
|-3-|-2-2222-2-2222-2-3-2-2222-2-2-3-5-3-2-2222-2-2222-2-22-2-3-5-3-5-|

PM      ----   ----       ----   - - - -   ----   ----   -- - - - -

Pre-Verse

|---------------------------------------------------------|
|---------------------------------------------------------|
|---------------------------------------------------------|
|---------------------------------------------------------|
|---------------------------------------------------------|
|-333333333333-333-555-666-333-22222222222222222222222222-|

PM------------ --- --- --- --- --------------------------

|--------------------------------------------------------------|
|--------------------------------------------------------------|
|--------------------------------------------------------------|
|--------------------------------------------------------------|
|------------------------------4h5p4h5p4h5p4h5-----------------|
|-333333333333-333-555-666-333-----------------2h3p2h3p2h3p2h3-|

PM------------ --- --- --- ---

Verse 

|-------------------------------------------------|
|-------------------------------------------------|
|-------------------------------------------------|
|-------------------------------------------------|
|-5------------------5-7-5-4------------------5-4-|
|-3-33333-33333-3333-3-5-3-2-22222-22222-2222-3-2-|

PM  ----- ----- ----         ----- ----- ----

|--------------------------------------------------------------|
|--------------------------------------------------------------|
|--------------------------------------------------------------|
|--------------------------------------------------------------|
|-5----------------------------4h5p4h5p4h5p4h5-----------------|
|-3-33333-3333-333-555-666-333-----------------2h3p2h3p2h3p2h3-|

PM  ----- ---- --- --- --- ---

Verse-Lead-Fill 1 (0:59)

|-20b~--------------------------------|
|------20----17-20-19-20-19-17-19-20~-|
|---------19--------------------------|
|-------------------------------------|
|-------------------------------------|
|-------------------------------------|

Backing Solos

|-------------------------------------------------------------------|
|-------------------------------------------------------------------|
|-------------------------------------------------------------------|
|------7--------------------------7-----------------4h5p4h5p4h5p4h5-|
|-7--7-5-6-------------------7--7-5-4h5p4h5p4h5p4h5-----------------|
|-5--5---4--4h5p4h5p4h5p4h5--5--5-----------------------------------|

Verse-Lead-Fill 2 (1:47)

|-24b~-24-22-21---------------|
|---------------17h19-20-19b~-|
|------------------------21b~-|
|-----------------------------|
|-----------------------------|
|-----------------------------|

Chorus

|----------------------------------------------------------|
|----------------------------------------------------------|
|----------------------------------------------------------|
|----------------------------------------------------------|
|-8------8------8------8-10-8-7------7---------------------|
|-6-6666-6-6666-6-6666-6--8-6-5-5555-5-5555-5787-5787-5787-|

PM  ----   ----   ----          ----   ---- ---- ---- ----

|--------------------------------|------------------|
|--------------------------------|------------------|
|--------------------------------|------------------|
|-3--3-/5-3----------------------|------------------|
|-5--5-/7-5-4-44-----------------|-10--10-8--8-10-8-|
|-----------5-55--5787-5787-5787-|--8---8-6--6--8-6-|

PM                ---- ---- ----

|----------------------------|----------------|
|----------------------------|----------------|
|----------------------------|----------------|
|----------------------------|----------------|
|-7------7------7------7-8-7-|-7-8-10-8-7-8-8-|
|-5-5555-5-5555-5-5555-5-6-5-|-5-6--8-6-5-6-6-|

PM  ----   ----   ----         - -  - - - -

Verse-Lead-Fill 3 (3:15)

|-22-------21-------19----------------|
|----17-19----17-19----17-19-19b-/20~-|
|-------------------------------------|
|-------------------------------------|
|-------------------------------------|
|-------------------------------------|
Добавлено: 17.11.2013
Другие материалы по этой песне:
  • Аккорды и текст

Страница создана 17.11.2013
http://primanota.ru/volbeat/room-24-chords.htm
Привет, Гость.
Предлагаем пройти революционный курс по гитаре.
Подарок от PrimaNota.Ru, забирай!