PrimaNota.ru - самый крупный в мире бесплатный архив песенных текстов, аккордов, табулатур и нот


Volbeat - Dead But Rising - таба, видео

Регистрация Запомнить меня
Войти через:  Facebook Google Twitter Vk Yandex Mail.ru

Volbeat - Dead But Rising - таба, видео

Печатать
Просмотров: 240
Авторы музыки: Michael Poulsen
Авторы текста: Michael Poulsen
Tabbed by: Connor Ford

Band:  Volbeat
Song:  Dead But Rising
Album: Outlaw Gentlemen And Shady Ladies (2013)


Tuning: D Standard (D, G, C, F, A, D)
(Tune every string down 1 whole step)





Both guitarists play the same part through-out the song but never the less 
it‘s pretty straight forward. Here is the song :D Enjoy!

Please comment, correct or rate, anything that helps!


Hammer on:    h
Pull off:     p
Muted note:   x
Vibrato:      ~~~
Slide up:     /
Slide down:   \



Guitar 1: Michael Poulsen
Guitar 2: Rob Caggiano


_____________________________________________________________________________________



Intro
|---------------------------------------------------------------------|
|---------------------------------------------------------------------|
|---------------------------------------------------------------------|
|-2---------------------------------------2---------------------------|
|-2-----------------------3-3-3-3-3---2---2---------------------------|
|-0-----------------------1-1-1-1-1---0---0---------------7h8p7h8p7h8-|

|------------------------------------------------------------------------|
|------------------------------------------------------------------------|
|------------------------------------------------------------------------|
|-2---------------------------------------2------------------------------|
|-2-----------------------3-3-3-3-3---2---2------------------------------|
|-0-----------------------1-1-1-1-1---0---0---------------7h10p7h10p7h10-|

|---------------------------------------------------------------------|
|---------------------------------------------------------------------|
|---------------------------------------------------------------------|
|-2---------------------------------------2---------------------------|
|-2-----------------------3-3-3-3-3---2---2---------------------------|
|-0-----------------------1-1-1-1-1---0---0---------------7h8p7h8p7h8-|

|-----------------------------------------------------------------|
|-----------------------------------------------------------------|
|-----------------------------------------------------------------|
|-2---------------------------------------------------------------|
|-2-----------------------3-3-3-3-3---2---2-------2-2-2-----------|
|-0-----------------------1-1-1-1-1---0---0-------0-0-0-----------|


_____________________________________________________________________________________


Pre-verse
|----------------------------------------------------------------------|
|----------------------------------------------------------------------|
|----------------------------------------------------------------------|
|----------------------------------------------------------------------|
|---------------------9h10p9-----7h9p7---------3-----5---3-----3-------|
|-0-0-0-0-0-0-0-0-0-0--------0-0-------0-0-0-0-1-0-0-3-0-1-0-0-1-0-1p0-|

|----------------------------------------------------------------------|
|----------------------------------------------------------------------|
|----------------------------------------------------------------------|
|----------------------------------------------------------------------|
|---------------------9h10p9-----7h9p7---------------------------------|
|-1p0-0-0-0-0-0-0-0-0--------0-0-------0-0-0-0-1p0-1p0-0-0-0-0-1p0-1p0-|

|----------------------------------------------------------------------|
|----------------------------------------------------------------------|
|----------------------------------------------------------------------|
|----------------------------------------------------------------------|
|---------------------9h10p9-----7h9p7---------3-----5---3-----3-------|
|-1p0-0-0-0-0-0-0-0-0--------0-0-------0-0-0-0-1-0-0-3-0-1-0-0-1-0-1p0-|

|----------------------------------------------------------------------|
|----------------------------------------------------------------------|
|----------------------------------------------------------------------|
|----------------------------------------------------------------------|
|---------------------9h10p9-----7h9p7---------------------------------|
|-1p0-0-0-0-0-0-0-0-0--------0-0-------0-0-0-0-1p0-1p0-0-0-0-0-1p0-1p0-|

|------------|----------------------------------------|
|------------|-TEMPO CHANGE---------------------------|
|------------|----------------------------------------|
|-2----------|---3------------------------------------|
|-2----------|-x-3-----------------x-3--3--3--3--3--3-|
|-0----------|-x-1-----------------x-1--1--1--1--1--1-|

|-----------------------------------------|
|-----------------------------------------|
|-----------------------------------------|
|-3---------------------------------------|
|-3---------------------------------------|
|-1---------------1-1-1-1-1-1-1-1-1-1-1-1-|


_____________________________________________________________________________________



Verse 1
|-------------------------------------------------|
|-------------------------------------------------|
|-------------------------------------------------|
|-------------------------------------------------|
|-----7-------7-----------------------------------|
|-0-----0---0-----0-0---0/8---8-8---8-8p7-7-7---7-|

|-------------------------------------------------|
|-------------------------------------------------|
|-------------------------------------------------|
|-------------------------------------------------|
|-----7-------7-----------------------------------|
|-0-----0---0-----0-0---0-1---1-1---1-1/7-7-7---7-|

|-------------------------------------------------|
|-------------------------------------------------|
|-------------------------------------------------|
|-------------------------------------------------|
|-----7-------7-----------------------------------|
|-0-----0---0-----0-0---0/8---8-8---8-8p7-7-7---7-|

|-------------------------------------------------|
|-------------------------------------------------|
|-------------------------------------------------|
|-------------------------------------------------|
|-----7-------7-----------------------------------|
|-0-----0---0-----0-0---0-1---1-1---1/5-----1-----|


_____________________________________________________________________________________



Verse 2
|-------------------------------------------------|
|-------------------------------------------------|
|-------------------------------------------------|
|-2-----------------------------------------------|
|-2-----------------------------------------------|
|-0---0-0-0-0-0---0-0-0-0-0---0-0-0-0-0---0-0-0-0-|

|-------------------------------------------------|
|-------------------------------------------------|
|-------------------------------------7-----------|
|-------------------------------------5-----7-----|
|-------5h7-5-7-----------5h7-5-7-5-5-------5-----|
|-0---0-----------0-0-0-0-------------------------|

|-------------------------------------------------|
|-------------------------------------------------|
|-------------------------------------------------|
|-2-----------------------------------------------|
|-2-----------------------------------------------|
|-0---0-0-0-0-0---0-0-0-0-0---0-0-0-0-0---0-0-0-0-|

|-------------------------------------------------|
|-------------------------------------------------|
|-------------------------------------7-----------|
|-------------------------------------5-----------|
|-------5h7-5-7-----------5h7-5-7-5-5-------------|
|-0---0-----------0-0-0-0-------------------12\---|


_____________________________________________________________________________________



Chorus
|-------------------------------------------------|
|-------------------------------------------------|
|-5-----------5-----------------------5-----------|
|-5-----------5-----------------------5-----------|
|-3---3-3-3-3-3---3-3-3-3-3---3-3-3-3-3---3-3-3-3-|
|-------------------------------------------------|

|-------------------------------------------------|
|-------------------------------------------------|
|-------------------------------------------------|
|-5-----------5---------------5-------7-/-9~~~~~~-|
|-5-----------5-----------5-7---7-5-5-------------|
|-3---3-3-3-3-3---3-3-3-3-------------------------|

|-------------------------------------------------|
|-------------------------------------------------|
|-5-----------5-----------------------5-----------|
|-5-----------5-----------------------5-----------|
|-3---3-3-3-3-3---3-3-3-3-3---3-3-3-3-3---3-3-3-3-|
|-------------------------------------------------|

|-------------------------------------------------|
|-------------------------------------------------|
|-------------------------7-----------7-----------|
|-5-----------5-----------7-----------7-----------|
|-5-----------5-----------5---5-5-5-5-5---5-5-5-5-|
|-3---3-3-3-3-3---3-3-3-3-------------------------|

|---------------------------------|
|---------------------------------|
|-5-------7-----------------------|
|-5-------7-------5---------------|
|-3-------5-------5---------------|
|-----------------3---------------|


_____________________________________________________________________________________



Repeat Verse 1

Repeat Verse 2

Repeat Chorus


_____________________________________________________________________________________



Bridge
|--------------------------------------|--------------------------------------|
|--------------------------------------|--------------------------------------|
|--------------------------------------|--------------------------------------|
|-5------------------------------------|-5------------------------------------|
|-5-----------------x-5--5--5--5--5--5-|-5-----------------x-5--5--5--5--5--5-|
|-3-----------------x-3--3--3--3--3--3-|-3-----------------x-3--3--3--3--3--3-|

|---------------------------------|---------------------------------|
|---------------------------------|---------------------------------|
|---------------------------------|---------------------------------|
|-5-------------------------------|-5-------------------------------|
|-5-------------------------------|-5-------------------------------|
|-3-------------------------------|-3-------------------------------|

|---------------------------------|--------------------------------------|
|---------------------------------|--------------------------------------|
|-----------------7---------------|--------------------------------------|
|-2---------------7---------------|-5------------------------------------|
|-2---------------5---------------|-5-----------------x-5--5--5--5--5--5-|
|-0-------------------------------|-3-----------------x-3--3--3--3--3--3-|

|---------------------------------|---------------------------------|
|---------------------------------|---------------------------------|
|---------------------------------|---------------------------------|
|-5-------------------------------|-5-------------------------------|
|-5-------------------------------|-5-------------------------------|
|-3-------------------------------|-3-------------------------------|

|---------------------------------|-----------------------------------------|
|---------------------------------|-----------------------------------------|
|-----------------7---------------|-----------------------------------------|
|-2---------------7---------------|-5---------------------------------------|
|-2---------------5---------------|-5---------------5-5-5-5-5-5-5-5-5-5-5-5-|
|-0-------------------------------|-3---------------------------------------|


_____________________________________________________________________________________



Chorus Variation
|-------------------------------------------------|
|-------------------------------------------------|
|-5-----------5-----------------------5-----------|
|-5-----------5-----------------------5-----------|
|-3---3-3-3-3-3---3-3-3-3-3---3-3-3-3-3---3-3-3-3-|
|-------------------------------------------------|

|-------------------------------------------------|
|-------------------------------------------------|
|-------------------------------------------------|
|-5-----------5---------------5-------7-/-9~~~~~~-|
|-5-----------5-----------5-7---7-5-5-------------|
|-3---3-3-3-3-3---3-3-3-3-------------------------|

|-------------------------------------------------|
|-------------------------------------------------|
|-5-----------5-----------------------5-----------|
|-5-----------5-----------------------5-----------|
|-3---3-3-3-3-3---3-3-3-3-3---3-3-3-3-3---3-3-3-3-|
|-------------------------------------------------|

|-------------------------------------------------|
|-------------------------------------------------|
|-------------------------------------------------|
|-5-----------5---------------5-------5h7p5~~~~~~-|
|-5-----------5-----------5-7---7-5-5-------------|
|-3---3-3-3-3-3---3-3-3-3-------------------------|

|-------------------------------------------------|
|-------------------------------------------------|
|-5-----------5-----------------------5-----------|
|-5-----------5-----------------------5-----------|
|-3---3-3-3-3-3---3-3-3-3-3---3-3-3-3-3---3-3-3-3-|
|-------------------------------------------------|

|-------------------------------------------------|
|-------------------------------------------------|
|-------------------------------------------------|
|-5-----------5---------------5-------7-/-9~~~~~~-|
|-5-----------5-----------5-7---7-5-5-------------|
|-3---3-3-3-3-3---3-3-3-3-------------------------|

|-------------------------------------------------|
|-------------------------------------------------|
|-5-----------5-----------------------5-----------|
|-5-----------5-----------------------5-----------|
|-3---3-3-3-3-3---3-3-3-3-3---3-3-3-3-3---3-3-3-3-|
|-------------------------------------------------|

|-------------------------------------------------|
|-------------------------------------------------|
|-------------------------7-----------7-----------|
|-5-----------5-----------7-----------7-----------|
|-5-----------5-----------5---5-5-5-5-5---5-5-5-5-|
|-3---3-3-3-3-3---3-3-3-3-------------------------|

|-----------------------------------------|
|-----------------------------------------|
|-5-------7-------------------------------|
|-5-------7-------------------------------|
|-3-------5-------------------------------|
|-----------------3-3-3-3-3-3-3-3-3-3-3-3-|


_____________________________________________________________________________________



Repeat Verse 1


_____________________________________________________________________________________



Outro
|---------------------------------------------------------|
|---------------------------------------------------------|
|---------------------------------------------------------|
|-3---------------------------------------2---------------|
|-3---------------3-3-3-3-----3-3-3-3-3-3-2---------------|
|-1---------------1-1-1-1-----1-1-1-1-1-1-0---------------|


_____________________________________________________________________________________



That’s all of it, please rate :) 
Добавлено: 24.02.2014
Другие материалы по этой песне:

Страница создана 11.09.2013
http://primanota.ru/volbeat/dead-but-rising-chords.htm
Привет, Гость.
Предлагаем пройти революционный курс по гитаре.
Подарок от PrimaNota.Ru, забирай!