PrimaNota.ru - самый крупный в мире бесплатный архив песенных текстов, аккордов, табулатур и нот


Volbeat - The Nameless One - таба, видео

Регистрация Запомнить меня
Войти через:  Facebook Google Twitter Vk Yandex Mail.ru

Volbeat - The Nameless One - таба, видео

Печатать
Просмотров: 167
Уроки эстрадного вокала в Санкт-Петербурге
The Nameless One

Tuning: D G C F A D

Intro

|------------------------------------------------------|
|------------------------------------------------------|
|------------------------------------------------------|
|-6-6--6-6-9-9-6-666-4--6-6--6-6-9-9-6-----------------|
|-4-4--4-4-7-7-4-444-2--4-4--4-4-7-7-4-2h4p2h4p2h4p2h4-|
|------------------------------------------------------|

PM               ---                 -

Verse

|------------------------------|
|------------------------------|
|------------------------------|
|-6-6--6-6--6-9--6-6--6-6--4-4-|
|-4-4--4-4--4-7--4-4--4-4--2-2-|
|------------------------------|

|------------------------------------------------------|
|------------------------------------------------------|
|-----------4p----------------------4p-----------------|
|-9--4--4h6----6-4p2-2h4-6-6-9--4h6----6-4p2-2h4-6-6-9-|
|-7--2-------------------4-4-7-------------------4-4-7-|
|------------------------------------------------------|

Chorus                                      Pre-Solo Backing Solo A

|-----------------------------------------------|---|------------|
|-----------------------------------------------|---|------------|
|-------------------------------(2)-4h6-4-2h4-2-|---|------------|
|-------------------99999999----(4)-6h7-6-4h6-4-|-6-|-9--9--9----|
|-77777777-99999999-77777777-77-----------------|-4-|-7--7--7--9-|
|-55555555-77777777----------55-----------------|---|----------7-|

Solo

|------------------------------------------------------------------|
|-----------------------------------------10h12p10-----------10----|
|----16-16h17-16----16-----16-16h17-16-12----------11--11-12----12-|
|-14-------------14-----14-----------------------------------------|
|------------------------------------------------------------------|
|------------------------------------------------------------------|

|----------------------------------------------------------|
|-----------------------------10-------------------8h10----|
|-12-11-11h12p11---------9-11----12-11-11h12p11---------11-|
|----------------9--9h10------------------------10---------|
|----------------------------------------------------------|
|----------------------------------------------------------|

|-----------------------------------------------------------------|
|--------------------------------------------8h10-8-8-------------|
|-11h12-11-9h11-------9-11-11h12-12-12-12-12----------11-12h14-12-|
|---------------9-9-9---------------------------------------------|
|-----------------------------------------------------------------|
|-----------------------------------------------------------------|

Backing Solo B/Bridge

|-----------------------------------------------------------------|
|-----------------------------------------------------------------|
|-----------------------------------------------------------------|
|-99-9999-99-9999-99-9999-99-9999-55-5555-55-5555-55-5555-55-5555-|
|-77-7777-77-7777-77-7777-77-7777-33-3333-33-3333-33-3333-33-3333-|
|-----------------------------------------------------------------|

|-----------------------------------------------------------------|
|-----------------------------------------------------------------|
|-66-6666-66-6666-66-6666-66-6666---------------------------------|
|-44-4444-44-4444-44-4444-44-4444---------------------------------|
|---------------------------------99-9999-99-9999-99-9999-99-9999-|
|---------------------------------77-7777-77-7777-77-7777-77-7777-|

Bridge-Fills         End

|-7-----|---7-------|-----------------------------------|
|---8---|-----8-7---|-----------------------------------|
|-----9-|---------9-|-----------------------------------|
|-------|-9---------|---------------------------------9-|
|-------|-----------|-99-9999-99-9999-99-9999-99-9999-7-|
|-------|-----------|-77-7777-77-7777-77-7777-77-7777---|
Добавлено: 08.10.2013
Другие материалы по этой песне:
  • Аккорды и текст

Страница создана 08.10.2013
http://primanota.ru/volbeat/the-nameless-one-chords.htm
Привет, Гость.
Предлагаем пройти революционный курс по гитаре.
Подарок от PrimaNota.Ru, забирай!