PrimaNota.ru - самый крупный в мире бесплатный архив песенных текстов, аккордов, табулатур и нот


Victor Wooten - Isnt She Lovely Bass - бас-таба, видео

Регистрация Запомнить меня
Войти через:  Facebook Google Twitter Vk Yandex Mail.ru

Victor Wooten - Isnt She Lovely Bass - бас-таба, видео

Печатать
Просмотров: 302
"Cords" from victor Wooten's edision of Isn't she lovely
as far as i can tell :)


B|-----13---13---------11---11-------- 11---11--------9---9------|
D|-----11---11---------10---10---------9----9---------11--11-----|
A|---12---12---12----11---11---11----11---11---11----------------|
E|---------------------------------------------------9---9---9---|

B|-------9---9--------9---8------------------------9-9--9---|
D|-------11--11-------9---9--------------------9-11---------|
A|------9---9---9-----------------7------7-9-11-------------|
E|-------------------7---7---7--------7-9-------------------|
Добавлено: 03.06.2013
Вам также может быть интересно:
Другие материалы по этой песне:
  • Аккорды и текст

Страница создана 03.06.2013
http://primanota.ru/victor-wooten/isnt-she-lovely-bass-chords.htm
Привет, Гость.
Предлагаем пройти революционный курс по гитаре.
Подарок от PrimaNota.Ru, забирай!