PrimaNota.ru - самый крупный в мире бесплатный архив песенных текстов, аккордов, табулатур и нот


Victor Wooten - Yesterday - бас-таба, видео

Регистрация Запомнить меня
Войти через:  Facebook Google Twitter Vk Yandex Mail.ru

Victor Wooten - Yesterday - бас-таба, видео

Печатать
Просмотров: 163
Song: Yesterday (The Beatles)
Artist: Victor Wooten

Tuning: Standard

This cover song is based on three loops:
1. Chorus
2. Intro/Pre-Chorus/Outro (I don't know what to call this part)
3. Verse

Tab Legend:

Let Ring = r
Slide Up To = /


Part Ia Chorus:

Let all the chords ring
|----------18-----17---------------16--------------18-|
|------18-----18---------------18------18------19-----|
|--------------------------16-------------------------|
|--16--------------------------------------17---------|

|----------21------20--------------21--------------21-|
|------21------21--------------21------21------21-----|
|--------------------------19--------------19---------|
|--19-------------------------------------------------|

Part Ib Overdub:

|------------------------|
|-----------------1--2---|
|-------4-2-0--2---------|
|--4-------------------0-|




Part IIa Intro/Pre-Chorus:

|-----16------15------14------13-|
|-----14------14------14------14-|
|--16--------------14------------|
|----------14--------------12----|

Part IIb Overdub:

|--------------------|
|--------------------|
|--4-------0-1-2-----|
|------2-----------0-|




Part IIIa Verse:

|-------16--16-------17--17-------16--16--------16--------16------16--16-|
|-------14--14-------16--16-------16--16--------16--------16------14--14-|
|---------------------------16r-----------12r-------14r------------------|
|--0r-----------16r-------------------------------------------0r---------|

|-----16------15------14------13-|
|-----14------14------14------14-|
|--16--------------14------------|
|----------14--------------12----|

Part IIIb Overdub:

|-------------------------------------------|
|-------------------------------------------|
|-----------4r----0r---2r--------4-----2----|
|--0r--/4-------------------0r------2-----0-|


Play these parts in any order you prefer and solo over them
Добавлено: 19.09.2013
Другие материалы по этой песне:
  • Аккорды и текст

Страница создана 19.09.2013
http://primanota.ru/victor-wooten/yesterday-chords.htm
Привет, Гость.
Предлагаем пройти революционный курс по гитаре.
Подарок от PrimaNota.Ru, забирай!