PrimaNota.ru - самый крупный в мире бесплатный архив песенных текстов, аккордов, табулатур и нот


Victor Wooten - Isnt She Lovely - бас-таба, видео

Регистрация Запомнить меня
Войти через:  Facebook Google Twitter Vk Yandex Mail.ru

Victor Wooten - Isnt She Lovely - бас-таба, видео

Печатать
Просмотров: 418
I couldn't find a decent version of this,
so I figured it would be a decent time to
write up my first tab! I've tabbed up two
parts of it that Victor Wooten plays that
I use while playing along to Stevie Wonder.
I've got a feeling this isn't quite 100%,
but I will pay attention to any comments and
update it if need be.

Enjoy! - martin022


PART 1:
G|---9---9------9---9-----9---8-----9---9-------|
D|---9---9------7---7---------------9---9-------|
A|---------10-9---9-------------6-7---7---------|
E|-9---9--------------8-7---7-------------11-10-|

G|---9---9------9---9-----9---8-----9---9-9-----|
D|---9---9------7---7---------------9---9-9-----|
A|---------10-9---9-------------6-7---7---------|
E|-9---9--------------8-7---7-------------------|


PART 2:
G|----13----13----11-11----11-11-------11----11-|
D|----11----11----10-------10-10-------9-----9--|
A|-12----12----12-------12-------11-11----11----|
E|----------------------------------------------|

G|-11---9-9-9---9-9-----9---9-9-9---9-9-9---|
D|-9----9-9-----9-9-----7---7-7-----7-7-----|
A|------------------9-9---9-----------------|
E|----9-------9-------------------7-------7-|

G|-8-8-8---9----------------9-9-----|
D|-7-7-----9-----------9-11---------|
A|----------------9-11--------------|
E|-------7---9-12----------------12-|


With the way I play this song, there is no need
for a loop pedal as VW uses. Below are the
links I used, and how I play the song:

Approx times:
0:00 - 0:24 - Part 1
0:24 - 0:40 - Part 2
0:40 - 0:57 - Part 1
0:57 - 1:12 - Part 2
1:12 - 1:30 - Part 1
1:30 - 1:45 - Part 2
1:45 - 2:01 - Part 1
2:01 - 2:17 - Part 2
2:17 - 2:34 - Part 1
2:34 - 2:50 - Part 2
2:50 - 3:06 - Part 1
3:06 - End  - Part 1 or 2 (fade)


Isn't She Lovely - Stevie Wonder:
http://www.youtube.com/watch?v=b2WzocbSd2w

Isn't She Lovely - Victor Wooten:
http://www.youtube.com/watch?feature=player_detailpage&v=7g7-VbZjnFA#t=50s
Добавлено: 29.09.2013
Другие материалы по этой песне:

Страница создана 21.06.2013
http://primanota.ru/victor-wooten/isnt-she-lovely-chords.htm
Привет, Гость.
Предлагаем пройти революционный курс по гитаре.
Подарок от PrimaNota.Ru, забирай!