PrimaNota.ru - самый крупный в мире бесплатный архив песенных текстов, аккордов, табулатур и нот


Victor Wooten - Sinister Minister - бас-таба, видео

Регистрация Запомнить меня
Войти через:  Facebook Google Twitter Vk Yandex Mail.ru

Victor Wooten - Sinister Minister - бас-таба, видео

Печатать
Просмотров: 308
Уроки эстрадного вокала в Санкт-Петербурге
opening bass line:funk style, s=thumb slap, p=index pop

        s p  s s   p  s s   p  s s   p    s s   p   s s    p   s   s
G)-----6--------9--------8-------11---------9---------13----------
D)-----------------------------------------------------------------------
A)---4----4-7-----7-6-----6-9-------9-7-----7-11------11-12-
E)-----------------------------------------------------------------------

       s  s   s  p s  p  s
G)------------9----8-------l
D)---------------------------l
A)--11-9-7----6----4----l
E)---------------------------l

then a rediculous bass solo that I cant play, let aone tab out, and the bass 
line again. Insted of index pops, use roll pops with all 4 fingers (kinda 
like finger picking the same string with 4 fingers.

tabbed by the geebs

     
Добавлено: 12.11.2013
Другие материалы по этой песне:

Страница создана 23.05.2012
http://primanota.ru/victor-wooten/sinister-minister-chords.htm
Привет, Гость.
Предлагаем пройти революционный курс по гитаре.
Подарок от PrimaNota.Ru, забирай!