PrimaNota.ru - самый крупный в мире бесплатный архив песенных текстов, аккордов, табулатур и нот


Ventures - Ad-venture - таба, видео

Регистрация Запомнить меня
Войти через:  Facebook Google Twitter Vk Yandex Mail.ru

Ventures - Ad-venture - таба, видео

Печатать
Просмотров: 184
Уроки эстрадного вокала в Санкт-Петербурге
Ad-Venture

Basstab by Jan Bjorklund, Finland
 jani_bjorklund@yahoo.se>
You are welcome to request for basstabs!
Fingering and positions as suggested by TablEdit,
please use common sense!

TablEdited by Jan Bjorklund
Tuning : E A D G 	Time Signature: 4/4

  |       |       |       |          |       |       |
      |         
|----------------------------------|-0---0----------------------------|
|-2---2----------------------------|----------------------------------|
|----------------------------------|----------------------------------|
|----------------------------------|----------------------------------|

  |       |       |       |          |       |       |
      |         
|----------------------------------|-0---0----------------------------|
|-2---2----------------------------|----------------------------------|
|----------------------------------|----------------------------------|
|----------------------------------|----------------------------------|

  |       |       |       |          |       |       |
      |         
|-------------2-------0------------|-------------2-------0------------|
|---------2---------------2---0----|---------2---------------2---0----|
|-0--------------------------------|-0--------------------------------|
|----------------------------------|----------------------------------|

  |       |       |       |          |       |       |
      |         
|-------------2-------0------------|-------------2-------0------------|
|---------2---------------2---0----|---------2---------------2---0----|
|-0--------------------------------|-0--------------------------------|
|----------------------------------|----------------------------------|

  |       |       |       |          |       |       |
      |         
|-------------2-------0------------|-------------2-------0------------|
|---------2---------------2---0----|---------2---------------2---0----|
|-0--------------------------------|-0--------------------------------|
|----------------------------------|----------------------------------|

  |       |       |       |          |       |       |
      |         
|-------------0--------------------|----------------------------------|
|---------0-----------3---0--------|-------------------------0--------|
|-----------------------------3----|-0-----------3--------------------|
|-3--------------------------------|----------------------------------|

  |       |       |       |          |       |       |
      |         
|-------------2-------0------------|-------------2-------0------------|
|---------2---------------2---0----|---------2---------------2---0----|
|-0--------------------------------|-0--------------------------------|
|----------------------------------|----------------------------------|

  |       |       |       |          |       |       |
      |         
|----------------------------------|----------------------------------|
|----------------------------------|-2---2---2---2---2---2---0--------|
|-3---3---3---3---3---3---3---3----|-----------------------------2----|
|----------------------------------|----------------------------------|

  |       |       |       |          |       |       |
      |         
|-------------2-------0------------|-------------2-------0------------|
|---------2---------------2---0----|---------2---------------2---0----|
|-0--------------------------------|-0--------------------------------|
|----------------------------------|----------------------------------|

  |       |       |       |          |       |       |
      |         
|-------------0--------------------|----------------------------------|
|---------0-----------3---0--------|-------------------------0--------|
|-----------------------------3----|-0-----------3--------------------|
|-3--------------------------------|----------------------------------|

  |       |       |       |          |       |       |
      |         
|----------------------------------|-------------2-------0------------|
|-0---0---0---0---0----------------|---------2---------------2---0----|
|---------------------3---0--------|-0--------------------------------|
|-----------------------------3----|----------------------------------|

  |       |       |       |          |       |       |
      |         
|-------------2-------0------------|-------------5-------3------------|
|---------2---------------2---0----|---------5---------------5---3----|
|-0--------------------------------|-3--------------------------------|
|----------------------------------|----------------------------------|

  |       |       |       |          |       |       |
      |         
|-------------5-------3------------|-------------7-------5------------|
|---------5---------------5---3----|---------7---------------7---5----|
|-3--------------------------------|-5--------------------------------|
|----------------------------------|----------------------------------|

  |       |       |       |          |       |       |
      |         
|----------------------------------|-0---------------0-------0--------|
|-0-------0-------0----------------|---------0-------------0-----4----|
|---------------------2---0--------|----------------------------------|
|----------------------------------|----------------------------------|

  |       |       |       |          |       |       |
      |         
|----------------------------------|-0---------------0-------0--------|
|-2---------------2-------2---4----|---------0-------------0-----4----|
|---------2-------------2----------|----------------------------------|
|----------------------------------|----------------------------------|

  |       |       |       |          |       |       |
      |         
|----------------------------------|----------------------------------|
|-2---------------2-------2---0----|----------------------------------|
|---------2-------------2----------|-3-----------3-----------3--------|
|----------------------------------|---------3-----------3------------|

  |       |       |       |          |       |       |
      |         
|----------------------------------|---------0---2-------0------------|
|----------------------------------|-2-----------------------2---0----|
|-2-----------2-----------2--------|----------------------------------|
|---------2-----------2------------|----------------------------------|

  |       |       |       |          |       |       |
      |         
|----------------------------------|----------------------------------|
|-2--------------------------------|-2---2----------------------------|
|----------------------------------|----------------------------------|
|----------------------------------|----------------------------------|

  |       |       |       |          |       |       |
      |         
|-0---0----------------------------|----------------------------------|
|----------------------------------|-3---3----------------------------|
|----------------------------------|----------------------------------|
|----------------------------------|----------------------------------|

  |       |       |       |          |       |       |
      |         
|-1---1----------------------------|-------------3-------1------------|
|----------------------------------|---------3---------------3---1----|
|----------------------------------|-1--------------------------------|
|----------------------------------|----------------------------------|

  |       |       |       |          |       |       |
      |         
|-------------3-------1------------|-------------3-------1------------|
|---------3---------------3---1----|---------3---------------3---1----|
|-1--------------------------------|-1--------------------------------|
|----------------------------------|----------------------------------|

  |       |       |       |          |       |       |
      |         
|-------------3-------1------------|-------------3-------1------------|
|---------3---------------3---1----|---------3---------------3---1----|
|-1--------------------------------|-1--------------------------------|
|----------------------------------|----------------------------------|

  |       |       |       |          |       |       |
      |         
|-------------3-------1------------|-------------1--------------------|
|---------3---------------3---1----|---------1-----------4---1--------|
|-1--------------------------------|-----------------------------4----|
|----------------------------------|-4--------------------------------|

  |       |       |       |          |       |       |
      |         
|----------------------------------|-------------3-------1------------|
|-------------------------1--------|---------3---------------3---1----|
|-1-----------4--------------------|-1--------------------------------|
|----------------------------------|----------------------------------|

  |       |       |       |          |       |       |
      |         
|-------------3-------1------------|----------------------------------|
|---------3---------------3---1----|----------------------------------|
|-1--------------------------------|-4---4---4---4---4---4---4---4----|
|----------------------------------|----------------------------------|

  |       |       |       |          |       |       |
      |         
|----------------------------------|-------------3-------1------------|
|-3---3---3---3---3---3---1--------|---------3---------------3---1----|
|-----------------------------3----|-1--------------------------------|
|----------------------------------|----------------------------------|

  |       |       |       |          |       |       |
      |         
|-------------3-------1------------|-------------1--------------------|
|---------3---------------3---1----|---------1-----------4---1--------|
|-1--------------------------------|-----------------------------4----|
|----------------------------------|-4--------------------------------|

  |       |       |       |          |       |       |
      |         
|----------------------------------|----------------------------------|
|-------------------------1--------|-1---1---1---1---1----------------|
|-1-----------4--------------------|---------------------4---1--------|
|----------------------------------|-----------------------------4----|

  |       |       |       |          |       |       |
      |         
|-------------3-------1------------|-------------3-------1------------|
|---------3---------------3---1----|---------3---------------3---1----|
|-1--------------------------------|-1--------------------------------|
|----------------------------------|----------------------------------|

  |       |       |       |          |       |       |
      |         
|-------------6-------4------------|-------------6-------4------------|
|---------6---------------6---4----|---------6---------------6---4----|
|-4--------------------------------|-4--------------------------------|
|----------------------------------|----------------------------------|

  |       |       |       |          |       |       |
      |         
|-------------8-------6------------|----------------------------------|
|---------8---------------8---6----|-1-------1-------1----------------|
|-6--------------------------------|---------------------3---1--------|
|----------------------------------|----------------------------------|

  |       |       |       |          |       |       |
      |         
|-1---------------1-------1---0----|-----------------------------0----|
|---------1-------------1----------|-3---------------3-------3--------|
|----------------------------------|---------3-------------3----------|
|----------------------------------|----------------------------------|

  |       |       |       |          |       |       |
      |         
|-1---------------1-------1---0----|----------------------------------|
|---------1-------------1----------|-3---------------3-------3---1----|
|----------------------------------|---------3-------------3----------|
|----------------------------------|----------------------------------|

  |       |       |       |          |       |       |
      |         
|----------------------------------|----------------------------------|
|----------------------------------|----------------------------------|
|-4-----------4-----------4--------|-3-----------3-----------3--------|
|---------4-----------4------------|---------3-----------3------------|

  |       |       |       |          |       |       |
      |         
|---------1---3-------1------------|----------------------------------|
|-3-----------------------3---1----|-3--------------------------------|
|----------------------------------|----------------------------------|
|----------------------------------|----------------------------------|

  |       |       |       |          |       |       |
      |         
|----------------------------------|-1---1----------------------------|
|-3---3----------------------------|----------------------------------|
|----------------------------------|----------------------------------|
|----------------------------------|----------------------------------|

  |       |       |       |          |       |       |
      |         
|----------------------------------|-2---2----------------------------|
|-4---4----------------------------|----------------------------------|
|----------------------------------|----------------------------------|
|----------------------------------|----------------------------------|

  |       |       |       |          |       |       |
      |         
|-------------4-------2------------|-------------4-------2------------|
|---------4---------------4---2----|---------4---------------4---2----|
|-2--------------------------------|-2--------------------------------|
|----------------------------------|----------------------------------|

  |       |       |       |          |       |       |
      |         
|-------------4-------2------------|-------------4-------2------------|
|---------4---------------4---2----|---------4---------------4---2----|
|-2--------------------------------|-2--------------------------------|
|----------------------------------|----------------------------------|

  |       |       |       |          |       |       |
      |         
|-------------4-------2------------|-------------4-------2------------|
|---------4---------------4---2----|---------4---------------4---2----|
|-2--------------------------------|-2--------------------------------|
|----------------------------------|----------------------------------|

  |       |       |       |          |       |       |
      |         
|-------------4-------2------------|-------------4-------2------------|
|---------4---------------4---2----|---------4---------------4---2----|
|-2--------------------------------|-2--------------------------------|
|----------------------------------|----------------------------------|

  |       |       |       |          |       |       |
      |         
|-------------4-------2------------|-------------4-------2------------|
|---------4---------------4---2----|---------4---------------4---2----|
|-2--------------------------------|-2--------------------------------|
|----------------------------------|----------------------------------|

  |       |       |       |          |       |       |
      |         
|-------------4-------2------------|----------------------------------|
|---------4---------------4---2----|----------------------------------|
|-2--------------------------------|-2--------------------------------|
|----------------------------------|----------------------------------|




Created with TablEdit http://www.tabledit.com/
     
Добавлено: 20.09.2013
Другие материалы по этой песне:
  • Аккорды и текст

Страница создана 20.08.2013
http://primanota.ru/ventures/ad-venture-chords.htm
Привет, Гость.
Предлагаем пройти революционный курс по гитаре.
Подарок от PrimaNota.Ru, забирай!