PrimaNota.ru - самый крупный в мире бесплатный архив песенных текстов, аккордов, табулатур и нот


Ventures - Wipe Out - аккорды и текст, таба, видео

Регистрация Запомнить меня
Войти через:  Facebook Google Twitter Vk Yandex Mail.ru

Ventures - Wipe Out - аккорды и текст, таба, видео

Печатать
Просмотров: 769
Авторы музыки: Patrick Connolly, Bob Berryhill, Jim Fuller, Ron Wilson, The Surfaris

Wipe Out
Ventures
		   * Ventures : Wipeout ( Berryhill, Wilson, Fuller )
  ------------------
                  C
E |-------------|-----------------|-----------------|-----------------|
B |---------0-1-|-1-1---------0-1-|-1-1---------0-1-|-1-1---------0-1-|
G |-----0-3-----|-----3-0-0-3-----|-----3-0-0-3-----|-----3-0-0-3-----|
D |-------------|-----------------|-----------------|-----------------|
A |-------------|-----------------|-----------------|-----------------|
E |-------------|-----------------|-----------------|-----------------|

                                                          F
E |-------------0-1-|-1-1---------0-1-|-1-1-------------|-----------------|
B |-1-1-----1-4-----|-----4-1-1-4-----|-----4-1-----0-1-|-1-1---------0-1-|
G |-----3-0---------|-----------------|---------0-3-----|-----3-0-0-3-----|
D |-----------------|-----------------|-----------------|-----------------|
A |-----------------|-----------------|-----------------|-----------------|
E |-----------------|-----------------|-----------------|-----------------|

                      C                               G
E |-----------1-2-3-|-3-3-1-----3-|-1-1-1-----------|-----------------|
B |-1-1-----1-------|-------3-3---|-------4-1-----0-|-1-1-1-------1---|
G |-----3-0---------|-------------|-----------0-3---|-------3-0-0---3-|
D |-----------------|-------------|-----------------|-----------------|
A |-----------------|-------------|-----------------|-----------------|
E |-----------------|-------------|-----------------|-----------------|

    F
E |-----------------||
B |-----------------||
G |-0-0-0-0-0-0-0-0-||
D |-----------------||
A |-----------------||
E |-----------------||


*******************************************************************************

                                           Keep rockin !

                                           Max ( Max_Guitarplayer@hotmail.com )

*******************************************************************************     
Добавлено: 19.10.2013
Другие материалы по этой песне:
  • Аккорды и текст

Страница создана 07.03.2012
http://primanota.ru/ventures/wipe-out-chords.htm
Привет, Гость.
Предлагаем пройти революционный курс по гитаре.
Подарок от PrimaNota.Ru, забирай!