PrimaNota.ru - самый крупный в мире бесплатный архив песенных текстов, аккордов, табулатур и нот


Ventures - Slaugther On 10th Avenue - таба, видео

Регистрация Запомнить меня
Войти через:  Facebook Google Twitter Vk Yandex Mail.ru

Ventures - Slaugther On 10th Avenue - таба, видео

Печатать
Просмотров: 120
Ventures_Slaughter On 10th Avenue

Basstab by Jan Bjorklund, Finland
 jani_bjorklund@yahoo.se>
You are welcome to request for basstabs!
Fingering and positions as suggested by TablEdit,
please use common sense!

TablEdited by Jan Bjorklund
Tuning : E A D G 	Time Signature: 4/4

  |       |       |       |          |       |       |
      |         
|-------------2--------------------|-------------2--------------------|
|-0--------------------------------|-0--------------------------------|
|-------------------------0--------|-------------------------0--------|
|----------------------------------|----------------------------------|

  |       |       |       |          |       |       |
      |         
|-------------2--------------------|-------------2--------------------|
|-0--------------------------------|-0--------------------------------|
|-------------------------0--------|-------------------------0--------|
|----------------------------------|----------------------------------|

  |       |       |       |          |       |       |
      |         
|-------------2--------------------|-------------2--------------------|
|-0--------------------------------|-0--------------------------------|
|-------------------------0--------|-------------------------0--------|
|----------------------------------|----------------------------------|

  |       |       |       |          |       |       |
      |         
|----------------------------------|----------------------------------|
|-4--------------------------------|-4-----------------------4--------|
|-------------4--------------------|-------------4--------------------|
|-------------------------2--------|----------------------------------|

  |       |       |       |          |       |       |
      |         
|-0-----------------------0--------|----------------------------------|
|-------------0--------------------|-7-----------7-----------4---5----|
|----------------------------------|-----------------7----------------|
|----------------------------------|----------------------------------|

  |       |       |       |          |       |       |
      |         
|-2---------------4----------------|-2--------------------------------|
|----------------------------------|----------------------------------|
|----------------------------------|----------------------------------|
|----------------------------------|----------------------------------|

  |       |       |       |          |       |       |
      |         
|-------------2--------------------|-------------2--------------------|
|-0--------------------------------|-0--------------------------------|
|-------------------------0--------|-------------------------0--------|
|----------------------------------|----------------------------------|

  |       |       |       |          |       |       |
      |         
|----------------------------------|----------------------------------|
|-4--------------------------------|-4-----------------------4--------|
|-------------4--------------------|-------------4--------------------|
|-------------------------2--------|----------------------------------|

  |       |       |       |          |       |       |
      |         
|-0-----------------------0--------|----------------------------------|
|-------------0--------------------|-7-----------7-----------4---5----|
|----------------------------------|-----------------7----------------|
|----------------------------------|----------------------------------|

  |       |       |       |          |       |       |
      |         
|-2---------------4----------------|-----------------4-------6--------|
|----------------------------------|-7--------------------------------|
|----------------------------------|----------------------------------|
|----------------------------------|----------------------------------|

  |       |       |       |          |       |       |
      |         
|-4-----------------------4--------|-3-----------------------3--------|
|-------------4--------------------|-------------3--------------------|
|----------------------------------|----------------------------------|
|----------------------------------|----------------------------------|

  |       |       |       |          |       |       |
      |         
|-------------------------2--------|----------------------------------|
|-0-----------4--------------------|----------------------------------|
|----------------------------------|-1-----------0--------------------|
|----------------------------------|----------------------------------|

  |       |       |       |          |       |       |
      |         
|-------------2--------------------|-------------2--------------------|
|-0--------------------------------|-0--------------------------------|
|-------------------------0--------|-------------------------0--------|
|----------------------------------|----------------------------------|

  |       |       |       |          |       |       |
      |         
|----------------------------------|----------------------------------|
|-4--------------------------------|-4-----------------------4--------|
|-------------4--------------------|-------------4--------------------|
|-------------------------2--------|----------------------------------|

  |       |       |       |          |       |       |
      |         
|-0-----------------------0--------|----------------------------------|
|-------------0--------------------|-7-----------7-----------4---5----|
|----------------------------------|-----------------7----------------|
|----------------------------------|----------------------------------|

  |       |       |       |          |       |       |
      |         
|-2---------------4----------------|-----------------4-------6--------|
|----------------------------------|-7--------------------------------|
|----------------------------------|----------------------------------|
|----------------------------------|----------------------------------|

  |       |       |       |          |       |       |
      |         
|-------------------------11-------|-------------7-----------10-------|
|-9-----------12-------------------|-8--------------------------------|
|----------------------------------|----------------------------------|
|----------------------------------|----------------------------------|

  |       |       |       |          |       |       |
      |         
|-------------------------2--------|----------------------------------|
|-0-----------4--------------------|-0--------------------------------|
|----------------------------------|----------------------------------|
|----------------------------------|----------------------------------|

  |       |       |       |          |       |       |
      |         
|----------------------------------|----------------------------------|
|-0-----------0-----------0--------|-----0-------0---0---0---0---0----|
|----------------------------------|----------------------------------|
|----------------------------------|----------------------------------|

  |       |       |       |          |       |       |
      |         
|----------------------------------|----------------------------------|
|-1-----------1-----------1--------|-----1-------1---1-----------0----|
|----------------------------------|---------------------1---3--------|
|----------------------------------|----------------------------------|

  |       |       |       |          |       |       |
      |         
|----------------------------------|----------------------------------|
|-1-----------1-----------1---0----|-----------------------------0----|
|-----------------1---1------------|-3-----------3-------1---3--------|
|----------------------------------|-----------------3----------------|

  |       |       |       |          |       |       |
      |         
|----------------------------------|----------------------------------|
|-1-----------1-----------1---0----|-----------------------------0----|
|-----------------1---1------------|-3-----------3-------1---3--------|
|----------------------------------|-----------------3----------------|

  |       |       |       |          |       |       |
      |         
|-----------------------------0----|-1-----------1-----------1--------|
|-1-----------1-----------3--------|-----------------1---1-------1----|
|-----------------1---1------------|----------------------------------|
|----------------------------------|----------------------------------|

  |       |       |       |          |       |       |
      |         
|-0---0---0---0---0---0---0---0----|-0---0----------------------------|
|----------------------------------|---------3---3---2---2---0---0----|
|----------------------------------|----------------------------------|
|----------------------------------|----------------------------------|

  |       |       |       |          |       |       |
      |         
|-------------0--------------------|-------------0--------------------|
|----------------------------------|----------------------------------|
|-3--------------------------------|-3--------------------------------|
|-------------------------3--------|-------------------------3--------|

  |       |       |       |          |       |       |
      |         
|----------------------------------|----------------------------------|
|-2--------------------------------|-2-----------------------2--------|
|-------------2--------------------|-------------2--------------------|
|-------------------------0--------|----------------------------------|

  |       |       |       |          |       |       |
      |         
|----------------------------------|-0-----------0--------------------|
|-3-----------------------3--------|-----------------0-------2---3----|
|-------------3--------------------|----------------------------------|
|----------------------------------|----------------------------------|

  |       |       |       |          |       |       |
      |         
|-0---------------2----------------|-4---------------2-------0--------|
|----------------------------------|----------------------------------|
|----------------------------------|----------------------------------|
|----------------------------------|----------------------------------|

  |       |       |       |          |       |       |
      |         
|-------------------------9--------|----------------------------------|
|-7-----------10-------------------|-6-----------------------6--------|
|----------------------------------|-------------6--------------------|
|----------------------------------|----------------------------------|

  |       |       |       |          |       |       |
      |         
|-------------------------0--------|----------------------------------|
|-------------2--------------------|-----------------------------1----|
|-3--------------------------------|-----------1-----3-----4----------|
|----------------------------------|-----4----------------------------|

  |       |       |       |          |       |       |
      |         
|-------------1--------------------|-------------1--------------------|
|----------------------------------|----------------------------------|
|-4--------------------------------|-4--------------------------------|
|-------------------------4--------|-------------------------4--------|

  |       |       |       |          |       |       |
      |         
|----------------------------------|----------------------------------|
|-3--------------------------------|-3-----------------------3--------|
|-------------3--------------------|-------------3--------------------|
|-------------------------1--------|----------------------------------|

  |       |       |       |          |       |       |
      |         
|----------------------------------|-1-----------1--------------------|
|-4-----------------------4--------|-----------------1-------3---4----|
|-------------4--------------------|----------------------------------|
|----------------------------------|----------------------------------|

  |       |       |       |          |       |       |
      |         
|-1---------------3----------------|-5---------------3----------------|
|----------------------------------|-------------------------6--------|
|----------------------------------|----------------------------------|
|----------------------------------|----------------------------------|

  |       |       |       |          |       |       |
      |         
|-------------------------10-------|-2-----------------------2--------|
|-8-----------11-------------------|-------------2--------------------|
|----------------------------------|----------------------------------|
|----------------------------------|----------------------------------|

  |       |       |       |          |       |       |
      |         
|-------------------------1--------|-----------4-----6-----4----------|
|-------------3--------------------|-----7-----------------------7----|
|-4--------------------------------|----------------------------------|
|----------------------------------|----------------------------------|

  |       |       |       |          |       |       |
      |         
|-------------------------1--------|-----------4-----6-----4----------|
|-------------3--------------------|-----7-----------------------7----|
|-4--------------------------------|----------------------------------|
|----------------------------------|----------------------------------|

  |       |       |       |          |       |       |
      |         
|-------------------------1--------|-----------4-----6-----4----------|
|-------------3--------------------|-----7-----------------------7----|
|-4--------------------------------|----------------------------------|
|----------------------------------|----------------------------------|

  |       |       |       |                  
|----------------------------------|
|----------------------------------|
|-4--------------------------------|
|----------------------------------|

  

Created with TablEdit http://www.tabledit.com/

     
Добавлено: 10.06.2013
Другие материалы по этой песне:
  • Аккорды и текст

Страница создана 10.06.2013
http://primanota.ru/ventures/slaugther-on-10th-avenue-chords.htm
Привет, Гость.
Предлагаем пройти революционный курс по гитаре.
Подарок от PrimaNota.Ru, забирай!