PrimaNota.ru - самый крупный в мире бесплатный архив песенных текстов, аккордов, табулатур и нот


Ventures - Hawaii 5 0 - таба, видео

Регистрация Запомнить меня
Войти через:  Facebook Google Twitter Vk Yandex Mail.ru

Ventures - Hawaii 5 0 - таба, видео

Печатать
Просмотров: 177
Hawaii Five-O
The Ventures

This tab is for the song heard on the TV show reruns in the 70s, rather
than the earlier ^Ósurf guitar^Ô sound.  The keyboard ^Óresponse^Ô to the
main guitar riff has not been tabbed.  It differs significantly from the
tab posted earlier by Mr. Stevens, which seems only to shift the second
verse up ½ step without taking into account the changes in the later
versus.  The version of the song which I tabbed had 3 separate versus,
and while the first part was shifted up ½ step, the second part was
completely different for each verse.  See that tab and you will
understand what I am talking about.

An underscore (^Ó___^Ô) is used to show a held/sustained note.  Also, I
tried to break the measures up logically, but the tune is not easily
notated in that way.

I had to reduce the font so the margins would fit in the hotmail window.


        Cm     Bb        Cm  Eb        Cm       Bb       Eb   G
e --------------|---------------|----------------|------------------|
B --------------|---------------|------------8__-|--6-6-----8______-|
G -------7-5----|---------------|--------7-5-----|------7-----------|
D -5-5-8-----5--|-5-5---8-5____-|--5-5-8---------|--------8---------|
A --------------|-----8---------|----------------|------------------|
E --------------|---------------|----------------|------------------|

Cm     F      Ab     Bb     Cm      Ab   Bb  Cm     Ab__
6-3---------------|-8-5------------------------------------------------
----6-4-----------|-----8-6------------------8__-6-6-------------------
--------5---------|---------7-5-------5-7-5__--------7---5___ -5-5-----
----------5-3-----|-------------8-6-8------------------8-----------6___
--------------6-3-|----------------------------------------------------
------------------|----------------------------------------------------


(1/2 step up)

         Dbm    B        Dbm  E       Dbm   B         E     Ab
e --------------|---------------|----------------|------------------|
B --------------|---------------|------------9__-|--7-7-----9______-|
G -------8-6----|---------------|--------8-6-----|------8-----------|
D -6-6-9-----6--|-6-6---9-6____-|--6-6-9---------|--------9---------|
A --------------|-----9---------|----------------|------------------|
E --------------|---------------|----------------|------------------|


C#m        F#          A     B     C#m      A   B  C#m     A__
7-5-4----------------|-9-7-5-------------------------------------------------
------7-5-4---4------|-------8-7-5-----------------9__-7-7-------------------
------------6--4-6___|-------------6-4-6-8^×6-4--6__--------8---6___-6-6-----
---------------------|---------------------------------------9-----------7___
---------------------|-------------------------------------------------------
---------------------|-------------------------------------------------------

(1/2 step up again)

         Dm     C       Dm    F        Dm        C          F    A
e --------------|---------------|----------------|------------------|
B --------------|---------------|-----------10__-|--8-8-----10_____-|
G -------9-7----|---------------|--------9-7-----|------9-----------|
D -7-7-10-----7-|-7-7---10-7___-|--7-7-10--------|--------10--------|
A --------------|-----10--------|----------------|------------------|
E --------------|---------------|----------------|------------------|


Dm              G          Bb    C     Dm       Bb   C  Dm
---------------------------|-10_-8-6------------------------------------
10-8-6---------------------|--------9-8-6------------10__--8-8----------
-------9-7-5-7-9-5-7-9-7___|-------------7-9-7-5-7__-----------9----7___
---------------------------|-------------------------------------10-----
---------------------------|--------------------------------------------
---------------------------|--------------------------------------------


C         Dm Bb                            Dm (chord arpeggiated?)
-------8-10____------------------6-8-10-|-----------5--
-8-8-8--------------------6-8-10--------|----------6---
----9---------------5-7-9---------------|---------7----
------------------8---------------------|--------7-----
----------------------------------------|-------5------
----------------------------------------|--------------

        Am        Am                   G                        Bb  C  
Dm
----------------------------------------------------------8-6---6_--8_--10___
---------------------------10-8-----------------8-6--6-6-9-------------------
----------------9-7--7-7-10-----------7-5--5-5-8-----------------------------
-----9-7--7-7-10-----------------5-5-8---------------------------------------
5-5-8------------------------------------------------------------------------
-----------------------------------------------------------------------------


Not sure on the rhythm chords for the last (ascending) riff.  Sounded
like Am in the beginning but then there is that shift where I put the
^ÓG^Ô chord, though I^Òm not certain about that.  The end chords for
emphasis with the end of the song.

My version also had a repeat of the third riff after some drums.

Of course, this file is my own work and interpretation of what I heard
through the headphones.  With much help from the SlowGold software
program.
     
Добавлено: 06.09.2013
Другие материалы по этой песне:
  • Аккорды и текст

Страница создана 06.09.2013
http://primanota.ru/ventures/hawaii-5-0-2-chords.htm
Привет, Гость.
Предлагаем пройти революционный курс по гитаре.
Подарок от PrimaNota.Ru, забирай!