PrimaNota.ru - самый крупный в мире бесплатный архив песенных текстов, аккордов, табулатур и нот


Ventures - Threes A Crowd - таба, видео

Регистрация Запомнить меня
Войти через:  Facebook Google Twitter Vk Yandex Mail.ru

Ventures - Threes A Crowd - таба, видео

Печатать
Просмотров: 82
ventures_3's A Crowd
(From The Ventures album Where The Action Is)

Basstab by Jan Bjorklund, Finland
 jani_bjorklund@yahoo.se>
You are welcome to request for basstabs!
Fingering and positions as suggested by TablEdit,
please use common sense!

TablEdited by Jan Bjorklund
Tuning : E A D G 	Time Signature: 12/8

  |           |           |           |             
|-------------9-----------7-------9----------------|
|---------------------9-----------------------9----|
|-7------------------------------------------------|
|--------------------------------------------------|

  |           |           |           |             
|-------------9-----------7------------------------|
|---------------------9-----------9---7------------|
|-7-------------------------------------------10---|
|--------------------------------------------------|

  |           |           |           |             
|-------------9-----------7-------9----------------|
|---------------------9-----------------------9----|
|-7------------------------------------------------|
|--------------------------------------------------|

  |           |           |           |             
|-------------9-----------7------------------------|
|---------------------9-----------9---7------------|
|-7-------------------------------------------10---|
|--------------------------------------------------|

  |           |           |           |             
|-------------9-----------7-------9----------------|
|---------------------9-----------------------9----|
|-7------------------------------------------------|
|--------------------------------------------------|

  |           |           |           |             
|-------------9-----------7------------------------|
|---------------------9-----------9---7------------|
|-7-------------------------------------------10---|
|--------------------------------------------------|

  |           |           |           |             
|--------------------------------------------------|
|-2------------------------------------------------|
|--------------------------------------------------|
|--------------------------------------------------|

  |           |           |           |             
|--------------------------------------------------|
|--------------------------------------------------|
|--------------------------------------------------|
|--------------------------------------------------|

  |           |           |           |             
|-------------2-----------0-------2----------------|
|---------------------2-----------------------2----|
|-0------------------------------------------------|
|--------------------------------------------------|

  |           |           |           |             
|-------------2-----------0------------------------|
|---------------------2-----------2---0------------|
|-0-------------------------------------------2----|
|--------------------------------------------------|

  |           |           |           |             
|-------------9-----------7-------9----------------|
|---------------------9-----------------------9----|
|-7------------------------------------------------|
|--------------------------------------------------|

  |           |           |           |             
|-------------9-----------7------------------------|
|---------------------9-----------9---7------------|
|-7-------------------------------------------10---|
|--------------------------------------------------|

  |           |           |           |             
|-------------2-----------0-------2----------------|
|---------------------2-----------------------2----|
|-0------------------------------------------------|
|--------------------------------------------------|

  |           |           |           |             
|-------------2-------0---2-------0---2-------3----|
|--------------------------------------------------|
|-0------------------------------------------------|
|--------------------------------------------------|

  |           |           |           |             
|-4------------------------------------------------|
|--------------------------------------------------|
|--------------------------------------------------|
|--------------------------------------------------|

  |           |           |           |             
|--------------------------------------------------|
|--------------------------------------------------|
|--------------------------------------------------|
|--------------------------------------------------|

  |           |           |           |             
|-------------9-----------7-------9----------------|
|---------------------9-----------------------9----|
|-7------------------------------------------------|
|--------------------------------------------------|

  |           |           |           |             
|-------------9-----------7------------------------|
|---------------------9-----------9---7------------|
|-7-------------------------------------------10---|
|--------------------------------------------------|

  |           |           |           |             
|-------------9-----------7-------9----------------|
|---------------------9-----------------------9----|
|-7------------------------------------------------|
|--------------------------------------------------|

  |           |           |           |             
|-------------9-----------7------------------------|
|---------------------9-----------9---7------------|
|-7-------------------------------------------10---|
|--------------------------------------------------|

  |           |           |           |             
|-------------9-----------7-------9----------------|
|---------------------9-----------------------9----|
|-7------------------------------------------------|
|--------------------------------------------------|

  |           |           |           |             
|-------------9-----------7------------------------|
|---------------------9-----------9---7------------|
|-7-------------------------------------------10---|
|--------------------------------------------------|

  |           |           |           |             
|--------------------------------------------------|
|-2------------------------------------------------|
|--------------------------------------------------|
|--------------------------------------------------|

  |           |           |           |             
|-------------------------------------0------------|
|-------------3-----------4------------------------|
|--------------------------------------------------|
|--------------------------------------------------|

  |           |           |           |             
|-1-------1---1-------1---1-------1---1-------1----|
|--------------------------------------------------|
|--------------------------------------------------|
|--------------------------------------------------|

  |           |           |           |             
|-1-------1---1-------1---1-------1---4-------1----|
|--------------------------------------------------|
|--------------------------------------------------|
|--------------------------------------------------|

  |           |           |           |             
|--------------------------------------------------|
|-------------1-----------4-------2-----------1----|
|-4-------4-----------4---------------4------------|
|--------------------------------------------------|

  |           |           |           |             
|-------------------------1------------------------|
|-------------2-------------------4---2------------|
|-4-------4-----------4-----------------------4----|
|--------------------------------------------------|

  |           |           |           |             
|-------------6-----------6-------8-----------6----|
|--------------------------------------------------|
|-9-------9-----------9----------------------------|
|--------------------------------------------------|

  |           |           |           |             
|-------------6-----------6-------8-----------6----|
|--------------------------------------------------|
|-9-------9-----------9----------------------------|
|--------------------------------------------------|

  |           |           |           |             
|-4-----------4-----------4-----------4------------|
|--------------------------------------------------|
|--------------------------------------------------|
|--------------------------------------------------|

  |           |           |           |             
|-4---4---4---4---4---4---4---4---4---4---4---4----|
|--------------------------------------------------|
|--------------------------------------------------|
|--------------------------------------------------|

  |           |           |           |             
|-------------9-----------7-------9----------------|
|---------------------9-----------------------9----|
|-7------------------------------------------------|
|--------------------------------------------------|

  |           |           |           |             
|-------------9-----------7------------------------|
|---------------------9-----------9---7------------|
|-7-------------------------------------------10---|
|--------------------------------------------------|

  |           |           |           |             
|-------------9-----------7-------9----------------|
|---------------------9-----------------------9----|
|-7------------------------------------------------|
|--------------------------------------------------|

  |           |           |           |             
|-------------9-----------7------------------------|
|---------------------9-----------9---7------------|
|-7-------------------------------------------10---|
|--------------------------------------------------|

  |           |           |           |             
|-------------9-----------7-------9----------------|
|---------------------9-----------------------9----|
|-7------------------------------------------------|
|--------------------------------------------------|

  |           |           |           |             
|-------------9-----------7------------------------|
|---------------------9-----------9---7------------|
|-7-------------------------------------------10---|
|--------------------------------------------------|

  |           |           |           |             
|--------------------------------------------------|
|-2------------------------------------------------|
|--------------------------------------------------|
|--------------------------------------------------|

  |           |           |           |             
|--------------------------------------------------|
|--------------------------------------------------|
|--------------------------------------------------|
|--------------------------------------------------|

  |           |           |           |             
|-------------2-----------0-------2----------------|
|---------------------2-----------------------2----|
|-0------------------------------------------------|
|--------------------------------------------------|

  |           |           |           |             
|-------------2-----------0------------------------|
|---------------------2-----------2---0------------|
|-0-------------------------------------------2----|
|--------------------------------------------------|

  |           |           |           |             
|-------------9-----------7-------9----------------|
|---------------------9-----------------------9----|
|-7------------------------------------------------|
|--------------------------------------------------|

  |           |           |           |             
|-------------9-----------7------------------------|
|---------------------9-----------9---7------------|
|-7-------------------------------------------10---|
|--------------------------------------------------|

  |           |           |           |             
|-------------2-----------0-------2----------------|
|---------------------2-----------------------2----|
|-0------------------------------------------------|
|--------------------------------------------------|

  |           |           |           |             
|-------------2-------0---2-------0---2-------3----|
|--------------------------------------------------|
|-0------------------------------------------------|
|--------------------------------------------------|

  |           |           |           |             
|-4------------------------------------------------|
|--------------------------------------------------|
|--------------------------------------------------|
|--------------------------------------------------|

  |           |           |           |             
|--------------------------------------------------|
|--------------------------------------------------|
|--------------------------------------------------|
|--------------------------------------------------|

  |           |           |           |             
|-------------9-----------7-------9----------------|
|---------------------9-----------------------9----|
|-7------------------------------------------------|
|--------------------------------------------------|

  |           |           |           |             
|-------------9-----------7------------------------|
|---------------------9-----------9---7------------|
|-7-------------------------------------------10---|
|--------------------------------------------------|

  |           |           |           |             
|-------------9-----------7-------9----------------|
|---------------------9-----------------------9----|
|-7------------------------------------------------|
|--------------------------------------------------|

  |           |           |           |             
|-------------9-----------7------------------------|
|---------------------9-----------9---7------------|
|-7-------------------------------------------10---|
|--------------------------------------------------|

  |           |           |           |             
|-------------9-----------7-------9----------------|
|---------------------9-----------------------9----|
|-7------------------------------------------------|
|--------------------------------------------------|

  |           |           |           |             
|-------------9-----------7------------------------|
|---------------------9-----------9---7------------|
|-7-------------------------------------------10---|
|--------------------------------------------------|

  |           |           |           |             
|--------------------------------------------------|
|-2------------------------------------------------|
|--------------------------------------------------|
|--------------------------------------------------|

  |           |           |           |             
|-------------------------------------0------------|
|-------------3-----------4------------------------|
|--------------------------------------------------|
|--------------------------------------------------|

  |           |           |           |             
|-1-------1---1-------1---1-------1---1-------1----|
|--------------------------------------------------|
|--------------------------------------------------|
|--------------------------------------------------|

  |           |           |           |             
|-1-------1---1-------1---1-------1---4-------1----|
|--------------------------------------------------|
|--------------------------------------------------|
|--------------------------------------------------|

  |           |           |           |             
|--------------------------------------------------|
|-------------1-----------4-------2-----------1----|
|-4-------4-----------4---------------4------------|
|--------------------------------------------------|

  |           |           |           |             
|-------------------------1------------------------|
|-------------2-------------------4---2------------|
|-4-------4-----------4-----------------------4----|
|--------------------------------------------------|

  |           |           |           |             
|-------------6-----------6-------8-----------6----|
|--------------------------------------------------|
|-9-------9-----------9----------------------------|
|--------------------------------------------------|

  |           |           |           |             
|-------------6-----------6-------8-----------6----|
|--------------------------------------------------|
|-9-------9-----------9----------------------------|
|--------------------------------------------------|

  |           |           |           |             
|-4-----------4-----------4-----------4------------|
|--------------------------------------------------|
|--------------------------------------------------|
|--------------------------------------------------|

  |           |           |           |             
|-4---4---4---4---4---4---4---4---4---4---4---4----|
|--------------------------------------------------|
|--------------------------------------------------|
|--------------------------------------------------|

  |           |           |           |             
|-------------9-----------7-------9----------------|
|---------------------9-----------------------9----|
|-7------------------------------------------------|
|--------------------------------------------------|

  |           |           |           |             
|-------------9-----------7------------------------|
|---------------------9-----------9---7------------|
|-7-------------------------------------------10---|
|--------------------------------------------------|

  |           |           |           |             
|-------------9-----------7-------9----------------|
|---------------------9-----------------------9----|
|-7------------------------------------------------|
|--------------------------------------------------|

  |           |           |           |             
|-------------9-----------7------------------------|
|---------------------9-----------9---7------------|
|-7-------------------------------------------10---|
|--------------------------------------------------|

  |           |           |           |             
|-------------9-----------7-------9----------------|
|---------------------9-----------------------9----|
|-7------------------------------------------------|
|--------------------------------------------------|

  |           |           |           |             
|-------------9-----------7------------------------|
|---------------------9-----------9---7------------|
|-7-------------------------------------------10---|
|--------------------------------------------------|

  |           |           |           |             
|--------------------------------------------------|
|-2------------------------------------------------|
|--------------------------------------------------|
|--------------------------------------------------|

  |           |           |           |             
|--------------------------------------------------|
|-------------------------2------------------------|
|--------------------------------------------------|
|--------------------------------------------------|


Created with TablEdit http://www.tabledit.com/
     
Добавлено: 23.06.2013
Другие материалы по этой песне:
  • Аккорды и текст

Страница создана 23.06.2013
http://primanota.ru/ventures/threes-a-crowd-chords.htm
Привет, Гость.
Предлагаем пройти революционный курс по гитаре.
Подарок от PrimaNota.Ru, забирай!