PrimaNota.ru - самый крупный в мире бесплатный архив песенных текстов, аккордов, табулатур и нот


Veil Of Maya - Mowgi - таба, видео

Регистрация Запомнить меня
Войти через:  Facebook Google Twitter Vk Yandex Mail.ru

Veil Of Maya - Mowgi - таба, видео

Печатать
Просмотров: 105
Уроки эстрадного вокала в Санкт-Петербурге
                          Veil of Maya
                             Mowgli
                              [Id]

------------------------------------------------3--------------------------|
------------------------------------------------3----------------13-13-13--|
--7-/-14--------------15-12-12-14b-----------------------------------------|
--5-/-12--------------13-13-13-10----5-4--0-4h7---------13-13-13-13-13-13--|
--6-/-13--0-00-00-00--10-10-10-10--0-1-0----------0-000-10-10-10-10-10-10--|
--5-/-12--0-00-00-00--10-10-10-10--0-1-0----------0-000-10-10-10-----------|

----------------------------------------------------------------|
----------------13----------------------x-x--15-15--x-x--15-15--|
------------------12-----------14-15\14-x-x---------x-x---------|
--7-------8---------13-12/13------------x-x--13-13--x-x--15-15--|
--5--0-1--5-000--------------0----------x-x--10-10--x-x--13-13--|
--4--0-1--5-000--------------0----------------------------------|

--------------------------------------------------------------|
--x-x--15-15-15-15-15-15--------------------------------------|
--x-x-----------------------------12-xx-15-xx-------12-14-14--|
--x-x--13-13-13-13-13-13--7-8-12--12-xx-17-xx-12-13-13-13-13--|
--x-x--10-10-10-10-10-10----------------------10-10-10-10-10--|
-------10-10-10-10-10-10--4-5-8---------------10-10-10-10-10--|

-----------------------------------------------|
-----------------------------15-15-------------|
--12-14--15-15-xx--------xx---------xx--14-14--|
--13-13--13-13-xx--------xx---------xx---------|
--10-10--13-13-xx--17-17-xx--10-10--xx--10-10--|
--10-10------------13-13-----------------------|

------------------------------------------------3--------------------------|
------------------------------------------------3----------------13-13-13--|
--7-/-14--------------15-12-12-14b-----------------------------------------|
--5-/-12--------------13-13-13-10----5-4--0-4h7---------13-13-13-13-13-13--|
--6-/-13--0-00-00-00--10-10-10-10--0-1-0----------0-000-10-10-10-10-10-10--|
--5-/-12--0-00-00-00--10-10-10-10--0-1-0----------0-000-10-10-10-----------|

----------------------------------------------------------------|
----------------13----------------------x-x--15-15--x-x--15-15--|
------------------12-----------14-15\14-x-x---------x-x---------|
--7-------8---------13-12/13------------x-x--13-13--x-x--15-15--|
--5--0-1--5-000--------------0----------x-x--10-10--x-x--13-13--|
--4--0-1--5-000--------------0----------------------------------|

--------------------------|
--x-x--15-15-15-15-15-15--|
--x-x---------------------|
--x-x--13-13-13-13-13-13--|
--x-x--10-10-10-10-10-10--|
-------10-10-10-10-10-10--|

------------------------------------------------3--------------------------|
------------------------------------------------3----------------13-13-13--|
--7-/-14--------------15-12-12-14b-----------------------------------------|
--5-/-12--------------13-13-13-10----5-4--0-4h7---------13-13-13-13-13-13--|
--6-/-13--0-00-00-00--10-10-10-10--0-1-0----------0-000-10-10-10-10-10-10--|
--5-/-12--0-00-00-00--10-10-10-10--0-1-0----------0-000-10-10-10-----------|

----------------------------------------------------------------|
----------------13----------------------x-x--15-15--x-x--15-15--|
------------------12-----------14-15\14-x-x---------x-x---------|
--7-------8---------13-12/13------------x-x--13-13--x-x--15-15--|
--5--0-1--5-000--------------0----------x-x--10-10--x-x--13-13--|
--4--0-1--5-000--------------0----------------------------------|

--------------------------------------------------------------|
--x-x--15-15-15-15-15-15--------------------------------------|
--x-x-----------------------------12-xx-15-xx-------12-14-14--|
--x-x--13-13-13-13-13-13--7-8-12--12-xx-17-xx-12-13-13-13-13--|
--x-x--10-10-10-10-10-10----------------------10-10-10-10-10--|
-------10-10-10-10-10-10--4-5-8---------------10-10-10-10-10--|

-----------------------------------------------|
-----------------------------15-15-------------|
--12-14--15-15-xx--------xx---------xx--14-14--|
--13-13--13-13-xx--------xx---------xx---------|
--10-10--13-13-xx--17-17-xx--10-10--xx--10-10--|
--10-10------------13-13-----------------------|

------------------------------------------------3--------------------------|
------------------------------------------------3----------------13-13-13--|
--7-/-14--------------15-12-12-14b-----------------------------------------|
--5-/-12--------------13-13-13-10----5-4--0-4h7---------13-13-13-13-13-13--|
--6-/-13--0-00-00-00--10-10-10-10--0-1-0----------0-000-10-10-10-10-10-10--|
--5-/-12--0-00-00-00--10-10-10-10--0-1-0----------0-000-10-10-10-----------|

----------------------------------------------------------------|
----------------13----------------------x-x--15-15--x-x--15-15--|
------------------12-----------14-15\14-x-x---------x-x---------|
--7-------8---------13-12/13------------x-x--13-13--x-x--15-15--|
--5--0-1--5-000--------------0----------x-x--10-10--x-x--13-13--|
--4--0-1--5-000--------------0----------------------------------|

--------------------------------------------------------------|
--x-x--15-15-15-15-15-15--------------------------------------|
--x-x-----------------------------12-xx-15-xx-------12-14-14--|
--x-x--13-13-13-13-13-13--7-8-12--12-xx-17-xx-12-13-13-13-13--|
--x-x--10-10-10-10-10-10----------------------10-10-10-10-10--|
-------10-10-10-10-10-10--4-5-8---------------10-10-10-10-10--|

-----------------------------------------------|
-----------------------------15-15-------------|
--12-14--15-15-xx--------xx---------xx--14-14--|
--13-13--13-13-xx--------xx---------xx---------|
--10-10--13-13-xx--17-17-xx--10-10--xx--10-10--|
--10-10------------13-13-----------------------|

------------------------------------------|
-----------------------------15b----------|
--12-14--15-15-xx--------xx-------x--14\--|
--13-13--13-13-xx--------xx-------x-------|
--10-10--13-13-xx--17-17-xx--10b--x--10\--|
--10-10------------13-13------------------|

                                            T
-------------------------------------------------------|
-------------------------------------------------------|
-------------------------------------------------------|
---------------------------------------4-7-12-7-4-0-5--|
-------------------------------------------------------|
-8-0-1-00-4-5-00-0-1-4-00-7-8-00-1-4-5-----------------|

                                 T
------------------------------------------|
------------------------------------------|
------------------------------------------|
------------------------------------------|
------------------------------------------|
-0-00000-8-00000-13-12-7\--5-7-8-12--8-7--|

---------------------------------------------------------------------|
---------------------------------------------------------------------|
---------------------------------------------------------------------|
---------------------------------------------------------------------|
-55-555-555-5-5-55-55-55-55-5-5-5-5-55-5-55-555-555-5-5-55-55-55-55--|
-55-555-555-5-5-55-55-55-55-5-5-5-5-55-5-55-555-555-5-5-55-55-55-55--|

-----------------------------------------------------------------|
-----------------------------------------------------------------|
-----------------------------------------------------------------|
-----------------------------------------------------------------|
--5-5-5-5-55-5-55-555-555-5-5-55-55-55-55-5-5-5-5-55-5-55-555-5--|
--5-5-5-5-55-5-55-555-555-5-5-55-55-55-55-5-5-5-5-55-5-55-555-5--|

----------------------------------------------------------------------|
----------------------------------------------------------------------|
-----------------------------------------0-2--------0-2-3-2------5-7--|
----------------------------------0-1---------------------------------|
----------------------------------------------------------------------|
-1-1-1--1-1--1-1-1-1---1-1--1-1-1-----1-1----1-1-1-1---------1-1------|

---------------------------------------------------------------------|
---------------------------------------------------------------------|
---------------------------------------------------------------------|
---------------------------------------------------------------------|
-55-555-555-5-5-55-55-55-55-5-5-5-5-55-5-55-555-555-5-5-55-55-55-55--|
-55-555-555-5-5-55-55-55-55-5-5-5-5-55-5-55-555-555-5-5-55-55-55-55--|

-----------------------------------------------------------------|
-----------------------------------------------------------------|
-----------------------------------------------------------------|
-----------------------------------------------------------------|
--5-5-5-5-55-5-55-555-555-5-5-55-55-55-55-5-5-5-5-55-5-55-555-5--|
--5-5-5-5-55-5-55-555-555-5-5-55-55-55-55-5-5-5-5-55-5-55-555-5--|

----------------------------------------------------------------------|
----------------------------------------------------------------------|
-----------------------------------------0-2--------0-2-3-2------5-7--|
----------------------------------0-1---------------------------------|
----------------------------------------------------------------------|
-1-1-1--1-1--1-1-1-1---1-1--1-1-1-----1-1----1-1-1-1---------1-1------|

                                                    T
-----------------------------------------------6-10-11-10-6---------|
----------------------------------------------8------------8--------|
---------------------------------------------7--------------7-------|
-----8-----7----------------10-----7--------8----------------8------|
---------------9----10----------------5/6-10------------------10-6--|
-555---555--77---88----5555----555----------------------------------|

-----------------|
-----------------|
-----------------|
------1---4-7-4--|
-5---------------|
---111--444------|

                                                    T
-----------------------------------------------6-10-15-10-6---------|
----------------------------------------------8------------8--------|
---------------------------------------------7--------------7-------|
-----8-----7----------------10-----7--------8----------------8------|
---------------9----10----------------5/6-10------------------10-6--|
-555---555--77---88----5555----555----------------------------------|

-----------------|
-----------------|
-----------------|
------1---4-7-4--|
-5---------------|
---111--444------|


                                                    T
-----------------------------------------------6-10-11-10-6---------|
----------------------------------------------8------------8--------|
---------------------------------------------7--------------7-------|
-----8-----7----------------10-----7--------8----------------8------|
---------------9----10----------------5/6-10------------------10-6--|
-555---555--77---88----5555----555----------------------------------|

-----------------|
-----------------|
-----------------|
------1---4-7-4--|
-5---------------|
---111--444------|

                                                    T
-----------------------------------------------6-10-15-10-6---------|
----------------------------------------------8------------8--------|
---------------------------------------------7--------------7-------|
-----8-----7----------------10-----7--------8----------------8------|
---------------9----10----------------5/6-10------------------10-6--|
-555---555--77---88----5555----555----------------------------------|

-----------------|
-----------------|
-----------------|
------1---4-7-4--|
-5---------------|
---111--444------|

------------------------------------------------3--------------------------|
------------------------------------------------3----------------13-13-13--|
--7-/-14--------------15-12-12-14b-----------------------------------------|
--5-/-12--------------13-13-13-10----5-4--0-4h7---------13-13-13-13-13-13--|
--6-/-13--0-00-00-00--10-10-10-10--0-1-0----------0-000-10-10-10-10-10-10--|
--5-/-12--0-00-00-00--10-10-10-10--0-1-0----------0-000-10-10-10-----------|

----------------------------------------------------------------|
----------------13----------------------x-x--15-15--x-x--15-15--|
------------------12-----------14-15\14-x-x---------x-x---------|
--7-------8---------13-12/13------------x-x--13-13--x-x--15-15--|
--5--0-1--5-000--------------0----------x-x--10-10--x-x--13-13--|
--4--0-1--5-000--------------0----------------------------------|

--------------------------|
--x-x--15-15-15-15-15-15--|
--x-x---------------------|
--x-x--13-13-13-13-13-13--|
--x-x--10-10-10-10-10-10--|
-------10-10-10-10-10-10--|

------------------------------------------------3--------------------------|
------------------------------------------------3----------------13-13-13--|
--7-/-14--------------15-12-12-14b-----------------------------------------|
--5-/-12--------------13-13-13-10----5-4--0-4h7---------13-13-13-13-13-13--|
--6-/-13--0-00-00-00--10-10-10-10--0-1-0----------0-000-10-10-10-10-10-10--|
--5-/-12--0-00-00-00--10-10-10-10--0-1-0----------0-000-10-10-10-----------|

----------------------------------------------------------------|
----------------13----------------------x-x--15-15--x-x--15-15--|
------------------12-----------14-15\14-x-x---------x-x---------|
--7-------8---------13-12/13------------x-x--13-13--x-x--15-15--|
--5--0-1--5-000--------------0----------x-x--10-10--x-x--13-13--|
--4--0-1--5-000--------------0----------------------------------|

--------------------------------------------------------------|
--x-x--15-15-15-15-15-15--------------------------------------|
--x-x-----------------------------12-xx-15-xx-------12-14-14--|
--x-x--13-13-13-13-13-13--7-8-12--12-xx-17-xx-12-13-13-13-13--|
--x-x--10-10-10-10-10-10----------------------10-10-10-10-10--|
-------10-10-10-10-10-10--4-5-8---------------10-10-10-10-10--|

-----------------------------------------------|
-----------------------------15-15-------------|
--12-14--15-15-xx--------xx---------xx--14-14--|
--13-13--13-13-xx--------xx---------xx---------|
--10-10--13-13-xx--17-17-xx--10-10--xx--10-10--|
--10-10------------13-13-----------------------|

------------------------------------------|
-----------------------------15b----------|
--12-14--15-15-xx--------xx-------x--14\--|
--13-13--13-13-xx--------xx-------x-------|
--10-10--13-13-xx--17-17-xx--10b--x--10\--|
--10-10------------13-13------------------|

\m/
Добавлено: 19.08.2013
Другие материалы по этой песне:
  • Аккорды и текст

Страница создана 19.08.2013
http://primanota.ru/veil-of-maya/mowgi-chords.htm
Привет, Гость.
Предлагаем пройти революционный курс по гитаре.
Подарок от PrimaNota.Ru, забирай!