PrimaNota.ru - самый крупный в мире бесплатный архив песенных текстов, аккордов, табулатур и нот


Veil Of Maya - Subject Zero - таба, видео

Регистрация Запомнить меня
Войти через:  Facebook Google Twitter Vk Yandex Mail.ru

Veil Of Maya - Subject Zero - таба, видео

Печатать
Просмотров: 80
Subject Zero - Veil of Maya
Drop B tuning (B F# B E G# C#)
BPM = 149
Time Signature = 4/4

\ = Slide Down
/ = Slide Up
X = Percussive Hit
~ = Hold Note

Rest for 36 Measures as the Piano and Orchestra parts play out. And then at 0:58...

 1     2     3     4     1     2     3     4     1     2     3     4     1     2     3     4            
|-----------------------|-----------------------|-----------------------|-----------------------|
|-----------------------|-----------------------|-----------------------|-----------------------|
|-----------------------|-----------------------|-----------------------|-----------------------|
|-----------------------|-----------------------|-----------------------|-----------------------|
|-----------------------|-----------------------|-----------------------|-----------------------|
|0-0---0-0---0-0-----0-0|0---0-0---0-0---0-0----|0-0-0---0-0---0-0---0-0|----0-0-0---0-0---0-0--|
|0-0---0-0---0-0-----0-0|0---0-0---0-0---0-0----|0-0-0---0-0---0-0---0-0|----0-0-0---0-0---0-0--|

 1     2     3     4     1     2     3     4     1     2     3     4     1     2     3     4
|-----------------------|-----------------------|-----------------------|-----------------------|
|-----------------------|-----------------------|-----------------------|-----------------------|
|-----------------------|-----------------------|-----------------------|------------------8-8-8|
|-----------------------|-----------------------|-----------------------|------------------4-4-4|
|0-0-----0-0-0---0-0---0|0---0-0-----0-0-0---0-0|--0-0---0-0-----0-0-0--|0-0---0-0---000-0-6-6-6|
|0-0-----0-0-0---0-0---0|0---0-0-----0-0-0---0-0|--0-0---0-0-----0-0-0--|0-0---0-0---000-0------|

 1     2     3     4     1     2     3     4     1     2     3     4     1     2     3     4
|-----------------------|-----------------------|-----------------------|-----------------------|
|-----------------------|-----------------------|-----------------------|-----------------------|
|-----------------------|-----------------------|-----------------------|-----------------------|
|-----------------------|-----------------------|-----------------------|-----------------------|
|0-0---0-0---0-0-----0-0|0---0-0---0-0---0-0----|0-0-0---0-0---0-0---0-0|----0-0-0---0-0---0-0--|
|0-0---0-0---0-0-----0-0|0---0-0---0-0---0-0----|0-0-0---0-0---0-0---0-0|----0-0-0---0-0---0-0--|

 1     2     3     4     1     2     3     4     1     2     3     4     1     2     3     4
|-----------------------|-----------------------|-----------------------|-----------------------|
|-----------------------|-----------------------|-----------------------|-----------------------|
|-----------------------|-----------------------|-----------------------|------------------8-8-8|
|-----------------------|-----------------------|-----------------------|------------------4-4-4|
|0-0-----0-0-0---0-0---0|0---0-0-----0-0-0---0-0|--0-0---0-0-----0-0-0--|0-0---0-0---000-0-6-6-6|
|0-0-----0-0-0---0-0---0|0---0-0-----0-0-0---0-0|--0-0---0-0-----0-0-0--|0-0---0-0---000-0------|

(1:24)

 1     2     3     4     1     2     3     4     1     2     3     4     1     2     3     4
|-----------------------|-----------------------|-----------------------|-----------------------|
|-----------------------|-----------------------|-----------------------|-----------------------|
|-----------------------|-----------------------|-----------------------|-----------------------|
|-----------------------|------------------0~--0|-----------------------|------7-7-7-8-8-8-4-4-4|
|-----------------------|----------------6~--6~-|-----------------------|------X-X-X-X-X-X-X-X-X|
|4\1-0-1---X-X-1---1---X|4\1-0-1---1/4-7--------|4\1-0-1---X-X-1---1---X|4\1-0-7-7-7-8-8-8-4-4-4|


 1     2     3     4     1     2     3     4     1     2     3     4     1     2     3     4
|-----------------------|-----------------------|-----------------------|-----------------------|
|-----------------------|-----------------------|-----------------------|-----------------------|
|-----------------------|-----------------------|-----------------------|-----------------------|
|-----------------------|------------------0~--0|-----------------------|------7-7-7------------|
|-----------------------|----------------6~--6~-|-----------------------|------X-X-X------------|
|4\1-0-1---X-X-1---1---X|4\1-0-1---1/4-7--------|4\1-0-1---X-X-1---1---X|4\1-0-7-7-7-------4\1-0|

 1     2     3     4     1     2     3     4     1     2     3     4     1     2     3     4
|-----------------------|-----------------------|-----------------------|-----------------------|
|-----------------------|-----------------------|-----------------------|-----------------------|
|-----------------------|-----------------------|-----------------------|-----------------------|
|-----------------------|------------------0~--0|-----------------------|------7-7-7-8-8-8-4-4-4|
|-----------------------|----------------6~--6~-|-----------------------|------X-X-X-X-X-X-X-X-X|
|4\1-0-1---X-X-1---1---X|4\1-0-1---1/4-7--------|4\1-0-1---X-X-1---1---X|4\1-0-7-7-7-8-8-8-4-4-4|

 1     2     3     4     1     2     3     4     1     2     3     4     1     2     3     4
|-----------------------|-----------------------|-----------------------|-----------------------|
|-----------------------|-----------------------|-----------------------|-----------------------|
|-----------------------|-----------------------|-----------------------|-----------------------|
|-----------------------|------------------0~--0|-----------------------|------7-7-7------------|
|-----------------------|----------------6~--6~-|-----------------------|------X-X-X------------|
|4\1-0-1---X-X-1---1---X|4\1-0-1---1/4-7--------|4\1-0-1---X-X-1---1---X|4\1-0-7-7-7-4\1-0-4\1-0|

Ok, so there you have it. That's the beginning of Subject Zero. The hardest part about this song
is getting the beginning rhythm down. Listening to the actual song is obviously recommended. And enjoy.
 
Добавлено: 11.08.2015
Другие материалы по этой песне:

Страница создана 22.06.2014
http://primanota.ru/veil-of-maya/subject-zero-chords.htm
Привет, Гость.
Предлагаем пройти революционный курс по гитаре.
Подарок от PrimaNota.Ru, забирай!