PrimaNota.ru - самый крупный в мире бесплатный архив песенных текстов, аккордов, табулатур и нот


Veil Of Maya - Daenerys - таба, видео

Регистрация Запомнить меня
Войти через:  Facebook Google Twitter Vk Yandex Mail.ru

Veil Of Maya - Daenerys - таба, видео

Печатать
Просмотров: 161
----------------------------------------------------
----------------------------------------------------
-----------14--15---7---5---------------------------
--12--15---10--12---5---5---7---8---10--------------
--8---12---8---10---6---6---5---5---8---------------
--8---12------------5---5---4---5---8---11-1--11-1--
                                        ..    ..
  


-------------------------------------------------
-------------------------------------------------
-------------------------------------------------
--7---8---10--12---10----------------------------
--5---5---8---8----8---8--------5-------1--------
--4---5---8---8----8---8---1--1---1--11---11-1---
                                     ..   ..


----------------------------
----------------------------
----------------------------
----------------------------
------------5-----5-6--00---
---11-1--11----11------00---
   ..    ..    ..      .. 


--------------------------------------------------
--------------------------------------------------
------------------7---5---------------------------
--12--15---7--8---5---5---7---8---10--------------
--8---12---3--5---6---6---5---5---8---------------
--8---12---3--5---5---5---4---5---8---11-1--11-1--
                                      ..    ..



-------------------------------------------------
-------------------------------------------------
-------------------------------------------------
--7---8---10--12---10----------------------------
--5---5---8---8----8---8--------5-------1--------
--4---5---8---8----8---8---1--1---1--11---11-1---
                                     ..   ..


-------------------------------------------------------------------------
-------------------------------------------------------------------------
-------------------------------------------------------------------------
-------------------------------------------------------------------------
--00--0-0---0--0--00--0-0--00--0-0--0-0--0---0--000--000--00--0-000------
--11--1-1---1--1--11--1-1--11--1-1--1-1--1---1--111--111--11--1-111-0----
                                                                    /
                                                                   /
                                                               \  /
                                                                \/

Anyone feel free to add or comment. I'll post the rest as soon as I can. 

     
Добавлено: 05.10.2015
Вам также может быть интересно:
Другие материалы по этой песне:

Страница создана 05.10.2015
http://primanota.ru/veil-of-maya/daenerys-chords.htm
Привет, Гость.
Предлагаем пройти революционный курс по гитаре.
Подарок от PrimaNota.Ru, забирай!