PrimaNota.ru - самый крупный в мире бесплатный архив песенных текстов, аккордов, табулатур и нот


Veil Of Maya - The Glass Slide - таба, видео

Регистрация Запомнить меня
Войти через:  Facebook Google Twitter Vk Yandex Mail.ru

Veil Of Maya - The Glass Slide - таба, видео

Печатать
Просмотров: 99
Tempo = 150
Right Channel

Legend
L - tied note
x - dead note
h - hammer on/pull off
b - bend
s - slide
~ - vibrato
g - ghost note
> - accentuated note
t - trill
M - palm mute
. - staccato
P - popping (bass)
S - slapping (bass)
+ - tapping
W - wide vibrato
< - fade in
w - whammy bar
= - tremolo picking
v - brush up
^ - brush down
V - pick stroke up
n - pick stroke down


C#|-------|-------|-------|-------|
G#|-------|-------|-------|-------|
E |-------|-------|-------|-------|
B |-------|-------|-------|-------|
F#|-------|-------|-------|-------|
B |-------|-------|-------|-------|


----------------------------------------------------|
--4--------4--------------4s-------9----------------|
--5s-------7--------------7s-------12---------------|
--0--------0--------------0--------0----------------|
--------------------x--x--------------------x--x----|
----------------------------------------------------|


----------------------------------------------------|
--9s-------11-------------15-------15---------------|
--12s------14-------------12-------12---------------|
--0--------0--------------13-------13---------------|
--------------------x--x--10-------10-------x--x----|
----------------------------------------------------|


----------------------------------------------------|
--4--------4--------------4s-------9----------------|
--5s-------7--------------7s-------12---------------|
--0--------0--------------0--------0----------------|
--------------------x--x--------------------x--x----|
----------------------------------------------------|


----------------------------------------------------|
--9s-------11---------------------------------------|
--12s------14---------------------------------------|
--0--------0--------------8--7--5--4----------------|
--------------------x--x----------------------------|
--------------------------------------8--7--5--4----|


----------------------------------------------------|
--4--------4--------------4s-------9----------------|
--5s-------7--------------7s-------12---------------|
--0--------0--------------0--------0----------------|
--------------------x--x--------------------x--x----|
----------------------------------------------------|


--------------------------------------------17------|
--9s-------11-------------13-------15-------10------|
--12s------14-------------12-------12-------12------|
--0--------0--------------13-------13-------13------|
--------------------x--x--10-------10-------10------|
----------------------------------------------------|


----------------------------------------------------|
--4--------4--------------4s-------9----------------|
--5s-------7--------------7s-------12---------------|
--0--------0--------------0--------0----------------|
--------------------x--x--------------------x--x----|
----------------------------------------------------|


----------------------------------------------------|
-----------------------------------13-15-13---------|
--8--11-12----11-12-14----12-14-15----------15-14---|
----------------------------------------------------|
----------------------------------------------------|
----------------------------------------------------|


----------------------------------------------------|
--4--------4--------------4s-------9----------------|
--5s-------7--------------7s-------12---------------|
--0--------0--------------0--------0----------------|
--------------------x--x--------------------x--x----|
----------------------------------------------------|


----------------------------------------------------|
--9s-------11-------------15-------15---------------|
--12s------14-------------12-------12---------------|
--0--------0--------------13-------13---------------|
--------------------x--x--10-------10-------x--x----|
----------------------------------------------------|


----------------------------------------------------|
--4--------4--------------4s-------9----------------|
--5s-------7--------------7s-------12---------------|
--0--------0--------------0--------0----------------|
--------------------x--x--------------------x--x----|
----------------------------------------------------|


----------------------------------------------------|
--9s-------11---------------------------------------|
--12s------14---------------------------------------|
--0--------0--------------8--7--5--4----------------|
--------------------x--x----------------------------|
--------------------------------------8--7--5--4----|


----------------------------------------------------|
--4--------4--------------4s-------9----------------|
--5s-------7--------------7s-------12---------------|
--0--------0--------------0--------0----------------|
--------------------x--x--------------------x--x----|
----------------------------------------------------|


--------------------------------------------17------|
--9s-------11-------------13-------15-------10------|
--12s------14-------------12-------12-------12------|
--0--------0--------------13-------13-------13------|
--------------------x--x--10-------10-------10------|
----------------------------------------------------|


----------------------------------------------------|
--4--------4--------------4s-------9----------------|
--5s-------7--------------7s-------12---------------|
--0--------0--------------0--------0----------------|
--------------------x--x--------------------x--x----|
----------------------------------------------------|


----------------------------------------------------|
-----------11-13-15-13-11---------------------------|
--11-12-14----------------14-12-11----------11------|
-----------------------------------13-12-10----13---|
----------------------------------------------------|
----------------------------------------------------|


----------------------------------------------------|
--4--------4--------------4s-------9----------------|
--5s-------7--------------7s-------12---------------|
--0--------0--------------0--------0----------------|
--------------------x--x--------------------x--x----|
----------------------------------------------------|


----------------------------------------------------|
--9s-------11-------------15-------15---------------|
--12s------14-------------12-------12---------------|
--0--------0--------------13-------13---------------|
--------------------x--x--10-------10-------x--x----|
----------------------------------------------------|


----------------------------------------------------|
--4--------4--------------4s-------9----------------|
--5s-------7--------------7s-------12---------------|
--0--------0--------------0--------0----------------|
--------------------x--x--------------------x--x----|
----------------------------------------------------|


----------------------------------------------------|
--9s-------11---------------------------------------|
--12s------14---------------------------------------|
--0--------0--------------8--7--5--4----------------|
--------------------x--x----------------------------|
--------------------------------------8--7--5--4----|


----------------------------------------------------|
--4--------4--------------4s-------9----------------|
--5s-------7--------------7s-------12---------------|
--0--------0--------------0--------0----------------|
--------------------x--x--------------------x--x----|
----------------------------------------------------|


--------------------------------------------17------|
--9s-------11-------------13-------15-------10------|
--12s------14-------------12-------12-------12------|
--0--------0--------------13-------13-------13------|
--------------------x--x--10-------10-------10------|
----------------------------------------------------|


----------------------------------------------------|
--4--------4--------------4s-------9----------------|
--5s-------7--------------7s-------12---------------|
--0--------0--------------0--------0----------------|
--------------------x--x--------------------x--x----|
----------------------------------------------------|


----------------------------------------------------|
-----------------------------------13-15-13---------|
--8--11-12----11-12-14----12-14-15----------15-14---|
----------------------------------------------------|
----------------------------------------------------|
----------------------------------------------------|


----------------------------------------------------|
--4--------4--------------4s-------9----------------|
--5s-------7--------------7s-------12---------------|
--0--------0--------------0--------0----------------|
--------------------x--x--------------------x--x----|
----------------------------------------------------|


----------------------------------------------------|
--9s-------11-------------15-------15---------------|
--12s------14-------------12-------12---------------|
--0--------0--------------13-------13---------------|
--------------------x--x--10-------10-------x--x----|
----------------------------------------------------|


----------------------------------------------------|
--4--------4--------------4s-------9----------------|
--5s-------7--------------7s-------12---------------|
--0--------0--------------0--------0----------------|
--------------------x--x--------------------x--x----|
----------------------------------------------------|


----------------------------------------------------|
--9s-------11---------------------------------------|
--12s------14---------------------------------------|
--0--------0--------------8--7--5--4----------------|
--------------------x--x----------------------------|
--------------------------------------8--7--5--4----|


----------------------------------------------------|
--4--------4--------------4s-------9----------------|
--5s-------7--------------7s-------12---------------|
--0--------0--------------0--------0----------------|
--------------------x--x--------------------x--x----|
----------------------------------------------------|


--------------------------------------------17------|
--9s-------11-------------13-------15-------10------|
--12s------14-------------12-------12-------12------|
--0--------0--------------13-------13-------13------|
--------------------x--x--10-------10-------10------|
----------------------------------------------------|


----------------------------------------------------|
--4--------4--------------4s-------9----------------|
--5s-------7--------------7s-------12---------------|
--0--------0--------------0--------0----------------|
--------------------x--x--------------------x--x----|
----------------------------------------------------|


----------------------------------------------------|
-----------11-13-15-13-11---------------------------|
--11-12-14----------------14-12-11----------11------|
-----------------------------------13-12-10----13---|
----------------------------------------------------|
----------------------------------------------------|


----------------------------------------------------|
----------------------------------------------------|
----------------------------------------------------|
--------6h-7--------10h12---------------------------|
--0-----------0-----------0-----0--0--0-------------|
--0M----------0-----------0M----0M-0M-0M------------|


----------------------------------------------------|
----------------------------------------------------|
----------------------------------------------------|
----------------------------------------------------|
----------------------------------------------------|
--0M-0M-0M-1b----0M----0M-0M----0--0--0--0--0--0----|


----------------------------------------------------|
----------------------------------------------------|
----------------------------------------------------|
----------------------------------------------------|
----------------------------------------------------|
-----0M-0M-0M-1b----0M----0M-0M----0--0--0--0--0----|


----------------------------------------------------|
----------------------------------------------------|
----------------------------------------------------|
----------------------------------------------------|
----------------------------------------------------|
--0-----0M-0M-0M-1b----0M----0M-0M----0--0--0--0----|


----------------------------------------------------|
----------------------------------------------------|
----------------------------------------------------|
----------------------------------------------------|
----------------------------------------------------|
--0--0-----0M-0M-0M-1b----0M----0M-0M----0--0--0----|


----------------------------------------------------|
----------------------------------------------------|
----------------------------------------------------|
----------------------------------------------------|
----------------------------------------------------|
--0--0--0-----0M-0M-0M-1b----0M----0M-0M----0--0----|


----------------------------------------------------|
----------------------------------------------------|
----------------------------------------------------|
----------------------------------------------------|
----------------------------------------------------|
--0--0--0--0-----0M-0M-0M-1b----0M----0M-0M----0----|


----------------------------------------------------|
----------------------------------------------------|
----------------------------------------------------|
----------------------------------------------------|
----------------------------------------------------|
--0--0--0--0--0-----0M-0M-0M-1b----0M----0M-0M------|


----------------------------------------------------|
----------------------------------------------------|
----------------------------------------------------|
----------------------------------------------------|
----------------------------------------------------|
--0--0--0--0--0--0-----0M-0M-0M-1b----0M----0M-0M---|


----------------------------------------------------|
----------------------------------------------------|
----------------------------------------------------|
----------------------------------------------------|
----------------------------------------------------|
--0M-0M-0M-1b----0M----0M-0M----0--0--0--0--0--0----|


----------------------------------------------------|
----------------------------------------------------|
----------------------------------------------------|
----------------------------------------------------|
----------------------------------------------------|
-----0M-0M-0M-1b----0M----0M-0M----0--0--0--0--0----|


----------------------------------------------------|
----------------------------------------------------|
----------------------------------------------------|
----------------------------------------------------|
----------------------------------------------------|
--0-----0M-0M-0M-1b----0M----0M-0M----0--0--0--0----|


----------------------------------------------------|
----------------------------------------------------|
----------------------------------------------------|
----------------------------------------------------|
----------------------------------------------------|
--0--0-----0M-0M-0M-1b----0M----0M-0M----0--0--0----|


----------------------------------------------------|
----------------------------------------------------|
----------------------------------------------------|
----------------------------------------------------|
----------------------------------------------------|
--0--0--0-----0M-0M-0M-1b----0M----0M-0M----0--0----|


----------------------------------------------------|
----------------------------------------------------|
----------------------------------------------------|
----------------------------------------------------|
----------------------------------------------------|
--0--0--0--0-----0M-0M-0M-1b----0M----0M-0M----0----|


----------------------------------------------------|
----------------------------------------------------|
----------------------------------------------------|
----------------------------------------------------|
----------------------------------------------------|
--0--0--0--0--0-----0M-0M-0M-1b----0M----0M-0M------|


----------------------------------------------------|
----------------------------------------------------|
----------------------------------------------------|
----------------------------------------------------|
----------------------------------------------------|
--0--0--0--0--0--0-----0M-0M-0M-1b----0M----0M------|


--------------------8--13s12------------------------|
--10-------8--------------------------6-------------|
--10-------10-------------------------7-------------|
--------------------------------x--x--7-----x--x----|
--------------------------------x--x--------x--x----|
----------------------------------------------------|


--------------------------8-------------------------|
--6--------5--------5h-6--------------5-------------|
--7--------7--------------------------7-------------|
--7--------7--------------------x--x--7-----x--x----|
--------------------------------x--x--------x--x----|
----------------------------------------------------|


----------------------------------------------------|
----------------------------------------------------|
----------------------------------------------------|
--3-----------------------3-----------5--5----------|
--7-----------------------7-----5--5--------5--5----|
--------0M-0M----0M-0M------------------------------|


----------------------------------------------------|
----------------------------------------------------|
----------------------------------------------------|
--3-----------------------2-----------3-------------|
--7-----------------------3-----------7-------------|
--------0M-0M----0M-0M----5-----0M----------0M-0L---|


----------------------------------------------------|
----------------------------------------------------|
----------------------------------------------------|
--------------3-----------5--5--------3-------------|
--------------7-----5--5--------5--5--7-------------|
--0M-0M-0M----------------------------------0M-0L---|


----------------------------------------|
----------------------------------------|
----------------------------------------|
--------------2-----------2-------------|
--------------3-----------3-------------|
--0M-0M-0M----5-----0M----5-------------|


--------------------8--13s12------------------------|
--10-------8--------------------------6-------------|
--10-------10-------------------------7-------------|
--------------------------------x--x--7-----x--x----|
--------------------------------x--x--------x--x----|
----------------------------------------------------|


--------------------------8-------------------------|
--6--------5--------5h-6--------------5-------------|
--7--------7----------------------------------------|
--7--------7--------------------x--x--7-----x--x----|
--------------------------------x--x--------x--x----|
----------------------------------------------------|


----------------------------------------------------|
----------------------------------------------------|
----------------------------------------------------|
--3-----------------------3-----------5--5----------|
--7-----------------------7-----5--5--------5--5----|
--------0M-0M----0M-0M------------------------------|


----------------------------------------------------|
----------------------------------------------------|
----------------------------------------------------|
--3-----------------------2-----------3-------------|
--7-----------------------3-----------7-------------|
--------0M-0M----0M-0M----5-----0M----------0M-0L---|


----------------------------------------------------|
----------------------------------------------------|
----------------------------------------------------|
--------------3-----------5--5--------3-------------|
--------------7-----5--5--------5--5--7-------------|
--0M-0M-0M----------------------------------0M-0L---|


----------------------------------------|
----------------------------------------|
----------------------------------------|
--------------2-----------2-------------|
--------------3-----------3-------------|
--0M-0M-0M----5-----0M----5-------------|


----------------------------------------------------|
--10----10----10----10----10------------------------|
--7-----7-----7-----7-----7-------------------------|
--8-----8-----8-----8-----8-------------------------|
----------------------------------------------------|
--------------------------------0M-0M-0M-0M-0M-0M---|


----------------------------------------------------|
--------10----------10----10----------------10------|
--------7-----------7-----7-----------------7-------|
--------8-----------8-----8-----------------8-------|
----------------------------------------------------|
--0M-0M-------0M-0M-------------0M-0M-0M-0M---------|


----------------------------------------------------|
--------10----10------------------------------------|
--------7-----7-------------------------------------|
--------8-----8-------------------------------------|
----------------------------------------------------|
--0M-0M-------------0M-0M-0M-0M-0M-0M-0M-0M-0M-0M---|


----------------------------------------------------|
--------10----------10----10------------------------|
--------7-----------7-----7-------------------------|
--------8-----------8-----8-----------2s------------|
--------------------------------------3s------------|
--0M-0M-------0M-0M-------------0M----5-------------|


----------------------------------------------------|
--6-----6-----6-----6-----6-------------------------|
--9-----9-----9-----9-----9-------------------------|
--7-----7-----7-----7-----7-------------------------|
--8-----8-----8-----8-----8-------------------------|
--------------------------------0M-0M-0M-0M-0M-0M---|


----------------------------------------------------|
--------6-----------6-----6-----------------6-------|
--------9-----------9-----9-----------------9-------|
--------7-----------7-----7-----------------7-------|
--------8-----------8-----8-----------------8-------|
--0M-0M-------0M-0M-------------0M-0M-0M-0M---------|


----------------------------------------------------|
--------6-----6-------------------------------------|
--------9-----9-------------------------------------|
--------7-----7-------------------------------------|
--------8-----8-----------0-----0-----0-----0-------|
--0M-0M-------------0--0--0M----0M----0M----0M------|


----------------------------------------------------|
--------6-----------6-----6-------------------------|
--------9-----------9-----9-------------------------|
--------7-----------7-----7-----------2-------------|
--0-----8-----------8-----8-----------3-------------|
--0M----------0M-0M-------------0M----5-------------|


----------------------------------------------------|
--10----10----10----10----10------------------------|
--7-----7-----7-----7-----7-------------------------|
--8-----8-----8-----8-----8-------------------------|
----------------------------------------------------|
--------------------------------0M-0M-0M-0M-0M-0M---|


----------------------------------------------------|
--------10----------10----10----------------10------|
--------7-----------7-----7-----------------7-------|
--------8-----------8-----8-----------------8-------|
----------------------------------------------------|
--0M-0M-------0M-0M-------------0M-0M-0M-0M---------|


----------------------------------------------------|
--------10----10------------------------------------|
--------7-----7-------------------------------------|
--------8-----8-------------------------------------|
----------------------------------------------------|
--0M-0M-------------0M-0M-0M-0M-0M-0M-0M-0M-0M-0M---|


----------------------------------------------------|
--------10----------10----10------------------------|
--------7-----------7-----7-------------------------|
--------8-----------8-----8-----------2s------------|
--------------------------------------3s------------|
--0M-0M-------0M-0M-------------0M----5-------------|


----------------------------------------------------|
--6-----6-----6-----6-----6-------------------------|
--9-----9-----9-----9-----9-------------------------|
--7-----7-----7-----7-----7-------------------------|
--8-----8-----8-----8-----8-------------------------|
--------------------------------0M-0M-0M-0M-0M-0M---|


----------------------------------------------------|
--------6-----------6-----6-----------------6-------|
--------9-----------9-----9-----------------9-------|
--------7-----------7-----7-----------------7-------|
--------8-----------8-----8-----------------8-------|
--0M-0M-------0M-0M-------------0M-0M-0M-0M---------|


----------------------------------------------------|
--------6-----6-------------------------------------|
--------9-----9-------------------------------------|
--------7-----7-------------------------------------|
--------8-----8-----------0-----0-----0-----0-------|
--0M-0M-------------0--0--0M----0M----0M----0M------|


----------------------------------------------------|
--------6-----------6-----6-------------------------|
--------9-----------9-----9-------------------------|
--------7-----------7-----7-----------2-------------|
--0-----8-----------8-----8-----------3-------------|
--0M----------0M-0M-------------0M----5-------------|


----------------------------------------------------|
--10----10----10----10----10------------------------|
--7-----7-----7-----7-----7-------------------------|
--8-----8-----8-----8-----8-------------------------|
----------------------------------------------------|
--------------------------------0M-0M-0M-0M-0M-0M---|


----------------------------------------------------|
--------10----------10----10----------------10------|
--------7-----------7-----7-----------------7-------|
--------8-----------8-----8-----------------8-------|
----------------------------------------------------|
--0M-0M-------0M-0M-------------0M-0M-0M-0M---------|


----------------------------------------------------|
--------10----10------------------------------------|
--------7-----7-------------------------------------|
--------8-----8-------------------------------------|
----------------------------------------------------|
--0M-0M-------------0M-0M-0M-0M-0M-0M-0M-0M-0M-0M---|


----------------------------------------------------|
--------10----------10----10------------------------|
--------7-----------7-----7-------------------------|
--------8-----------8-----8-----------2s------------|
--------------------------------------3s------------|
--0M-0M-------0M-0M-------------0M----5-------------|


----------------------------------------------------|
--6-----6-----6-----6-----6-------------------------|
--9-----9-----9-----9-----9-------------------------|
--7-----7-----7-----7-----7-------------------------|
--8-----8-----8-----8-----8-------------------------|
--------------------------------0M-0M-0M-0M-0M-0M---|


----------------------------------------------------|
--------6-----------6-----6-----------------6-------|
--------9-----------9-----9-----------------9-------|
--------7-----------7-----7-----------------7-------|
--------8-----------8-----8-----------------8-------|
--0M-0M-------0M-0M-------------0M-0M-0M-0M---------|


----------------------------------------------------|
--------6-----6-------------------------------------|
--------9-----9-------------------------------------|
--------7-----7-------------------------------------|
--------8-----8-----------0-----0-----0-----0-------|
--0M-0M-------------0--0--0M----0M----0M----0M------|


----------------------------------------------------|
--------6-----------6-----6-------------------------|
--------9-----------9-----9-------------------------|
--------7-----------7-----7-----------2-------------|
--0-----8-----------8-----8-----------3-------------|
--0M----------0M-0M-------------0M----5-------------|


----------------------------------------------------|
--10----10----10----10----10------------------------|
--7-----7-----7-----7-----7-------------------------|
--8-----8-----8-----8-----8-------------------------|
----------------------------------------------------|
--------------------------------0M-0M-0M-0M-0M-0M---|


----------------------------------------------------|
--------10----------10----10----------------10------|
--------7-----------7-----7-----------------7-------|
--------8-----------8-----8-----------------8-------|
----------------------------------------------------|
--0M-0M-------0M-0M-------------0M-0M-0M-0M---------|


----------------------------------------------------|
--------10----10------------------------------------|
--------7-----7-------------------------------------|
--------8-----8-------------------------------------|
----------------------------------------------------|
--0M-0M-------------0M-0M-0M-0M-0M-0M-0M-0M-0M-0M---|


----------------------------------------------------|
--------10----------10----10------------------------|
--------7-----------7-----7-------------------------|
--------8-----------8-----8-----------2s------------|
--------------------------------------3s------------|
--0M-0M-------0M-0M-------------0M----5-------------|


----------------------------------------------------|
--6-----6-----6-----6-----6-------------------------|
--9-----9-----9-----9-----9-------------------------|
--7-----7-----7-----7-----7-------------------------|
--8-----8-----8-----8-----8-------------------------|
--------------------------------0M-0M-0M-0M-0M-0M---|


----------------------------------------------------|
--------6-----------6-----6-----------------6-------|
--------9-----------9-----9-----------------9-------|
--------7-----------7-----7-----------------7-------|
--------8-----------8-----8-----------------8-------|
--0M-0M-------0M-0M-------------0M-0M-0M-0M---------|


----------------------------------------------------|
--------6-----6-------------------------------------|
--------9-----9-------------------------------------|
--------7-----7-------------------------------------|
--------8-----8-----------0-----0-----0-----0-------|
--0M-0M-------------0--0--0M----0M----0M----0M------|


----------------------------------------------------|
--------6-----------6-----6-------------------------|
--------9-----------9-----9-------------------------|
--------7-----------7-----7-----------2-------------|
--0-----8-----------8-----8-----------3-------------|
--0M----------0M-0M-------------0M----5-------------|


----------------------------------------------------|
----------------------------------------------------|
----------------------------------------------------|
----------------------------------------------------|
--0-----------------------0-------------------------|
--1-----1M-1M-1M----1M----1-----1M----1M----1M------|


----------------------------------------------------|
----------------------------------------------------|
--------------------------3s----7s----6s----9-------|
----------------------------------------------------|
--------0-----------------1s----5s----4s----7-------|
--1M-1M-1-----1M----1M------------------------------|


----------------------------------------------------|
----------------------------------------------------|
----------------------------------------------------|
----------------------------------------------------|
--0-----------------------0-------------------------|
--1-----1M-1M-1M----1M----1-----1M----1M----1M------|


----------------------------------------------------|-------|-------|-------|
----------------------------------------------------|-------|-------|-------|
----------------------------------------------------|-------|-------|-------|
----------------------------------------------------|-------|-------|-------|
--------0-----------------4-----1-----3-------------|-------|-------|-------|
--1M-1M-1-----1M----1M----4-----1-----3-------------|-------|-------|-------|


-------|----------------------------------------------------|
-------|----------------------------------------------------|
-------|----------------------------------------------------|
-------|----------------------------------------------------|
-------|--0-----------------------0-------------------------|
-------|--1-----1M-1M-1M----1M----1-----1M----1M----1M------|


----------------------------------------------------|
----------------------------------------------------|
--------------------------3s----7s----6s----9-------|
----------------------------------------------------|
--------0-----------------1s----5s----4s----7-------|
--1M-1M-1-----1M----1M------------------------------|


----------------------------------------------------|
----------------------------------------------------|
----------------------------------------------------|
----------------------------------------------------|
--0-----------------------0-------------------------|
--1-----1M-1M-1M----1M----1-----1M----1M----1M------|


----------------------------------------------------|
----------------------------------------------------|
----------------------------------------------------|
----------------------------------------------------|
--------0-----------------4-----1-----3-------------|
--1M-1M-1-----1M----1M----4-----1-----3-------------|


----------------------------------------------------|
----------------------------------------------------|
----------------------------------------------------|
----------------------------------------------------|
--0-----------------------0-------------------------|
--1-----1M-1M-1M----1M----1-----1M----1M----1M------|


----------------------------------------------------|
----------------------------------------------------|
--------------------------3s----7s----6s----9-------|
----------------------------------------------------|
--------0-----------------1s----5s----4s----7-------|
--1M-1M-1-----1M----1M------------------------------|


----------------------------------------------------|
----------------------------------------------------|
----------------------------------------------------|
----------------------------------------------------|
--0-----------------------0-------------------------|
--1-----1M-1M-1M----1M----1-----1M----1M----1M------|


----------------------------------------------------|
----------------------------------------------------|
----------------------------------------------------|
----------------------------------------------------|
--------0-----------------4-----1-----3-------------|
--1M-1M-1-----1M----1M----4-----1-----3-------------|


----------------------------------------------------|
----------------------------------------------------|
----------------------------------------------------|
----------------------------------------------------|
--0M----------------0M-0M-0M----------------0M-0M---|
--0M----------------0M-0M-0M----------------0M-0M---|


----------------------------------------------------------------------------|
----------------------------------------------------------------------------|
----------------------------------------------------------------------------|
----------------------------------------------------------------------------|
--0M----------0M----------0M----------0M------------------------------------|
--0M----------0M----------0M----------0M------------------------------------|


----------------------------------------------------|
--4--------4--------------4s-------9----------------|
--5s-------7--------------7s-------12---------------|
--0--------0--------------0--------0----------------|
--------------------x--x--------------------x--x----|
----------------------------------------------------|


----------------------------------------------------|
--9s-------11-------------15-------15---------------|
--12s------14-------------12-------12---------------|
--0--------0--------------13-------13---------------|
--------------------x--x--------------------x--x----|
----------------------------------------------------|


----------------------------------------------------|
--4--------4--------------4s-------9----------------|
--5s-------7--------------7s-------12---------------|
--0--------0--------------0--------0----------------|
--------------------x--x--------------------x--x----|
----------------------------------------------------|


----------------------------------------------------|
--9s-------11---------------------------------------|
--12s------14---------------------------------------|
--0--------0--------------8--7--5--4----------------|
--------------------x--x----------------------------|
--------------------------------------8--7--5--4----|


----------------------------------------------------|
--4--------4--------------4s-------9----------------|
--5s-------7--------------7s-------12---------------|
--0--------0--------------0--------0----------------|
--------------------x--x--------------------x--x----|
----------------------------------------------------|


--------------------------------------------17------|
--9s-------11-------------13-------15-------10------|
--12s------14-------------12-------12-------12------|
--0--------0--------------13-------13-------13------|
--------------------x--x--10-------10-------10------|
----------------------------------------------------|


----------------------------------------------------|
--4--------4--------------4s-------9----------------|
--5s-------7--------------7s-------12---------------|
--0--------0--------------0--------0----------------|
--------------------x--x--------------------x--x----|
----------------------------------------------------|


----------------------------------------------------|
-----------------------------------13-15-13---------|
--8--11-12----11-12-14----12-14-15----------15-14---|
----------------------------------------------------|
----------------------------------------------------|
----------------------------------------------------|


----------------------------------------------------|
--4--------4--------------4s-------9----------------|
--5s-------7--------------7s-------12---------------|
--0--------0--------------0--------0----------------|
--------------------x--x--------------------x--x----|
----------------------------------------------------|


----------------------------------------------------|
--9s-------11-------------15-------15---------------|
--12s------14-------------12-------12---------------|
--0--------0--------------13-------13---------------|
--------------------x--x--------------------x--x----|
----------------------------------------------------|


----------------------------------------------------|
--4--------4--------------4s-------9----------------|
--5s-------7--------------7s-------12---------------|
--0--------0--------------0--------0----------------|
--------------------x--x--------------------x--x----|
----------------------------------------------------|


----------------------------------------------------|
--9s-------11---------------------------------------|
--12s------14---------------------------------------|
--0--------0--------------8--7--5--4----------------|
--------------------x--x----------------------------|
--------------------------------------8--7--5--4----|


--------------------------------------------17------|
--9s-------11-------------13-------15-------10------|
--12s------14-------------12-------12-------12------|
--0--------0--------------13-------13-------13------|
--------------------x--x--10-------10-------10------|
----------------------------------------------------|


--------------------------------------------17------|
--9s-------11-------------13-------15-------10------|
--12s------14-------------12-------12-------12------|
--0--------0--------------13-------13-------13------|
--------------------x--x--10-------10-------10------|
----------------------------------------------------|


--------------------------------------------17------|
--9s-------11-------------13-------15-------10------|
--12s------14-------------12-------12-------12------|
--0--------0--------------13-------13-------13------|
--------------------x--x--10-------10-------10------|
----------------------------------------------------|


----------------------------------------------------|
-----------11-13-15-13-11---------------------------|
--11-12-14----------------14-12-11----------11------|
-----------------------------------13-12-10----13---|
----------------------------------------------------|
----------------------------------------------------|


----------------------------------------------------||
----------------------------------------------------||
----------------------------------------------------||
--------6h-7--------10h12---------------------------||
--0-----------0-----------0-----0--0--0-------------||
--0M----------0-----------0M----0M-0M-0M------------||
Добавлено: 18.08.2013
Другие материалы по этой песне:

Страница создана 09.06.2013
http://primanota.ru/veil-of-maya/the-glass-slide-chords.htm
Привет, Гость.
Предлагаем пройти революционный курс по гитаре.
Подарок от PrimaNota.Ru, забирай!