PrimaNota.ru - самый крупный в мире бесплатный архив песенных текстов, аккордов, табулатур и нот


Veil Of Maya - Winter Is Coming Soon - таба, видео

Регистрация Запомнить меня
Войти через:  Facebook Google Twitter Vk Yandex Mail.ru

Veil Of Maya - Winter Is Coming Soon - таба, видео

Печатать
Просмотров: 206
                             Veil of Maya
                               Eclipse
                         Winter is coming soon


(00:00-00:05)
-------------------------------------------------------------|
-------------------------------------------------------------|
-------------------------------------------------------------|
----------------------------3---4---------3---4---3---1------|
--4-3--1-3/8------6\5---5-------------5-------------------5--|
--4-3--1-3/8--3-4-----3---3---1---111---1---1---1---1---1----|

---------------|
---------------|
---------------|
--4t-8t--------|
--------8t-5t--|
---------------|

---------------------------------------------------------------|
---------------------------------------------------------------|
---------------------------------------------------------------|
------------------------------8--------------------------------|
----14-13---13---11-13-13------------6-8-6-5---6t-8t---6t-8t---|
--9-------9----9----------444---333----------9t-----9t---------|

----------------------------------------------|
----------------------------------------------|
---------13/15\13-------11t--7t---------------|
------11----------11----x----x----------------|
--8/9----------------9--9t---5t--4-3----------|
---------------------------------4-3-999-888--|

-----------|-----------------------|
-----------|-----------------------|
-----------|--------10/11------13--|
-----------|------8---------11-----|
--6-8-6-5--|--5/6---------9--------|
-----------|-----------------------|

(00:16-00:19)
-----------------------------------------------------|
-----------------------------------------------------|
-----------------------------------------------------|
-----------------------------------------------------|
--13------13---13------13---9-6666-8888-9-6666-8888--|
--9--9999-9--9-9--9999-9--9-6-----------6------------|

---------------------|
---------------------|
------------10tr11---|
---------------------|
-------9-13----------|
--9-13---------------|

(00:20-00:58)
---------------------------------------------------------------|
---------------------------------------------------------------|
--10--11p10--10--10---11p10-----------------------1-3-1h3p1----|
--11--11-11--11--11---11-11---4---4-----1---3-4-1-----------4--|
--13--9--9---13--13---9--9----1-------4---4--------------------|
--9---9--9---9---9----9--9----1-1---1--------------------------|

-------7p6-----------9-----13-------------------14-13-----------------------|
-------------7---------7/9----------14----------------14--------------------|
--6/8------8---10/12-------------11----11-13h15----------13-11-10-----------|
--4/6----------8/9------------13----------------------------------11----11--|
--2/4----------6/7---------------------------------------------------13-----|
----------------------------------------------------------------------------|

(00:58-00:59)
-----------------------|
-----------------------|
--------10/11------13--|
------8---------11-----|
--5/6---------9--------|
-----------------------|

-----------------------------------------------|
-----------------------------------------------|
-----------------------------------------------|
----------------------------------------8-6----|
--13------13--13------13--9------9--9-9-----8--|
--9--9999-9---9--9999-9---6-6666-6--6----------|

-------------------------------------|
-------------------------------------|
------10-10--11-11-----10-10--11-11--|
-------------------------------------|
--0-0-8--8---9--9--0-0-8--8---9--9---|
--0-0--------------0-0---------------|

-------------------------------|
-------------------------------|
--10-8-7-6-----------------10--|
-----------9-7-------7---7-----|
---------------8-5/8---8-------|
-------------------------------|

-----------------------------------------------|
-----------------------------------------------|
-----------------------------------------------|
----------------------------------------8-6----|
--13------13--13------13--9------9--9-9-----8--|
--9--9999-9---9--9999-9---6-6666-6--6----------|

-------------------------------------|
-------------------------------------|
------10-10--11-11-----10-10--11-11--|
-------------------------------------|
--0-0-8--8---9--9--0-0-8--8---9--9---|
--0-0--------------0-0---------------|

(1:12)
-----------------------------------|
-----------------------------------|
--1087-6------------10------13-----|
---------9-7------8------11--------|
------------8-5/6------9--------0--|
--------------------------------0--|

(1:28)
--13131313131314131313131313--|
--xxxxxxxxxxxxxxxxxxxxxxxxxx--|
--10101010101011101010101010--|
------------------------------|
------------------------------|
------------------------------|x2

--14141414141414141414141414--|
--xxxxxxxxxxxxxxxxxxxxxxxxxx--|
--11111111111111111111111111--|
------------------------------|
------------------------------|
------------------------------|

--13131313131314131313131313--|
--xxxxxxxxxxxxxxxxxxxxxxxxxx--|
--10101010101011101010101010--|
------------------------------|
------------------------------|
------------------------------|x3

--1414141414141514141414141414--|
--xxxxxxxxxxxxxxxxxxxxxxxxxxxx--|
--1111111111111211111111111111--|
--------------------------------|
--------------------------------|
--------------------------------|

--131313131313------|
--xxxxxxxxxxxx------|
--101010101010------|
--------------------|
---------------0-0--|
---------------0-0--|

--13131313131314131313131313--|
--xxxxxxxxxxxxxxxxxxxxxxxxxx--|
--10101010101011101010101010--|
------------------------------|
------------------------------|
------------------------------|x2

--1414141414141514141414141414--|
--xxxxxxxxxxxxxxxxxxxxxxxxxxxx--|
--1111111111111211111111111111--|
--------------------------------|
--------------------------------|
--------------------------------|

--13131313131314131313131313--|
--xxxxxxxxxxxxxxxxxxxxxxxxxx--|
--10101010101011101010101010--|
------------------------------|
------------------------------|
------------------------------|x3

--1414141414141514141414141414--|
--xxxxxxxxxxxxxxxxxxxxxxxxxxxx--|
--1111111111111211111111111111--|
--------------------------------|
--------------------------------|
--------------------------------|

--131313131313------|
--xxxxxxxxxxxx------|
--101010101010------|
--------------------|
---------------0-0--|
---------------0-0--|

(1:56)
-------------------------------------------|
--------11---------11---11-----------------|
-10---------10---------------10------------|
----8-----8----8------8----8----8----------|
------6----------6----------------6--------|
------------------------------------0-0-0--|
------------------------------------0-0-0--|

\m/
Добавлено: 10.11.2013
Другие материалы по этой песне:

Страница создана 13.06.2013
http://primanota.ru/veil-of-maya/winter-is-coming-soon-chords.htm
Привет, Гость.
Предлагаем пройти революционный курс по гитаре.
Подарок от PrimaNota.Ru, забирай!