PrimaNota.ru - самый крупный в мире бесплатный архив песенных текстов, аккордов, табулатур и нот


Trivium - Torn Between Scylla And Charybdis - текст песни, таба, бас-таба, видео

Регистрация Запомнить меня
Войти через:  Facebook Google Twitter Vk Yandex Mail.ru

Trivium - Torn Between Scylla And Charybdis - текст песни, таба, бас-таба, видео

Печатать
Просмотров: 234
Авторы: Trivium

Yes, it is Lukige's tab, and I wish I "could" delete it, the reason why I did this was
my laptop couldn't connect to my printer and my Microsoft word isn't on my desktop. So I
it up, and then went to the internet and printed it because I really only need the 
whoop. It'll save the time off people who only want the solo and don't want to
it.

Lukige's Solo For Torn Between Scylla And Charybdis:

7-string (B E A D G B E)
Solo
|-14p10------------10-14p10----------10-12p9------------9-12p9----------9--|
|-------12----12------------12----12-----------11----11--------11----11----|
|----------11------------------11-----------------12--------------12-------|
|--------------------------------------------------------------------------|
|--------------------------------------------------------------------------|
|--------------------------------------------------------------------------|
|--------------------------------------------------------------------------|

|-14p10------------10-14p10---------10-15p12---------12-15p12---------15---|
|-------12----12------------12----12---------14----14--------14----17------|
|----------11------------------11---------------15--------------15---------|
|--------------------------------------------------------------------------|
|--------------------------------------------------------------------------|
|--------------------------------------------------------------------------|
|--------------------------------------------------------------------------|

|-18p15----------------------------12-15p12-------------------------------|
|-------17-------14-17p14-------14----------14-------11-14p11----------14-|
|----------18--15---------15-------------------15- 12---------12-----15---|
|---------------------------17----------------------------------14--------|
|-------------------------------------------------------------------------|
|-------------------------------------------------------------------------|
|-------------------------------------------------------------------------|

|------------------------------harm-------------|
|-17p14-----------------------------------------|
|-------15--------12-15p12------15*\-----(-15-)-|
|----------17--14----------14-------\-----------|
|------------------------------------\----------|
|-------------------------------------\---------|
|-----------------------------------------------|

|-----------------------------|---------------------------------|
|-----------------------------|---------------------------------|
|--------------------11-------|---------------12----14-12-------|
|---/12---11-12-14------14----|---/16---14-16-------------------|
|-----------------------------|---------------------------------|
|-----------------------------|---------------------------------|
|-----------------------------|---------------------------------|

    PM----------------------------------------|
|---------------------------------------------|
|--12--0-11-0-14-0-12-0-15-0-14-0-17-0-15-0---|
|---------------------------------------------|
|---------------------------------------------|
|---------------------------------------------|
|---------------------------------------------|
|---------------------------------------------|

|-14-14-14-14-14-14-14-14-15-14-12--------------------------------|
|----------------------------------15-14-12-----------------------|
|-------------------------------------------14-12-11--------------|
|----------------------------------------------------14-12-11-----|
|-------------------------------------------------------------14--|
|-----------------------------------------------------------------|
|-----------------------------------------------------------------|

|-19-15----------------15-19-15----------------14-|
|-------17----------17----------17----------17----|
|----------16----16----------------16----16-------|
|-------------17----------------------17----------|
|-------------------------------------------------|
|-------------------------------------------------|
|-------------------------------------------------|

|-17-14----------------14-17-14----------------14-|
|-------16----------16----------16----------16----|
|----------17-14-17----------------17-14-17-------|
|-------------------------------------------------|
|-------------------------------------------------|
|-------------------------------------------------|
|-------------------------------------------------|

 /-These notes are trilled------------------------\

|-------------------------|-------------11-14-12\--|
|----------------------13-|----------13------------|
|----11-14-------11-14----|----11-14---------------|
|-13-------10-13----------|-13---------------------|
|-------------------------|------------------------|
|-------------------------|------------------------|
|-------------------------|------------------------|

|---12-------12------14-------(14)---------|
|---15b17----15b17r==17b19r===(17)b19------|
|------------------------------------------|
|------------------------------------------|
|------------------------------------------|
|------------------------------------------|
|------------------------------------------|

|---15-------15------17-------(17)------------|
|---18b20----18b20r==20b22r===(20)b22---------|
|---------------------------------------------|
|---------------------------------------------|
|---------------------------------------------|
|---------------------------------------------|
|---------------------------------------------|

|-14---------14---------17---------17---------|
|----12---------12----------------------------|
|---------11---------11----16---14----16---14-|
|---------------------------------------------|
|---------------------------------------------|
|---------------------------------------------|
|---------------------------------------------|

|----------------------------14-15-17----------15-17-19----------17-19-20-|
|-------------------13-16-17----------16-17-19----------17-19-20----------|
|----------12-14-16-------------------------------------------------------|
|-13-14-16----------------------------------------------------------------|
|-------------------------------------------------------------------------|
|-------------------------------------------------------------------------|
|-------------------------------------------------------------------------|

|-22b24------------------------------------|
|------------------------------------------|
|------------------------------------------|
|------------------------------------------|
|------------------------------------------|
|------------------------------------------|
|------------------------------------------|
Добавлено: 20.04.2012
Другие материалы по этой песне:

Страница создана 24.02.2012
http://primanota.ru/trivium/torn-between-scylla-and-charybdis-chords.htm
Привет, Гость.
Предлагаем пройти революционный курс по гитаре.
Подарок от PrimaNota.Ru, забирай!