PrimaNota.ru - самый крупный в мире бесплатный архив песенных текстов, аккордов, табулатур и нот


Trivium - Washing Away Me In The Tides - текст песни, таба, видео

Регистрация Запомнить меня
Войти через:  Facebook Google Twitter Vk Yandex Mail.ru

Trivium - Washing Away Me In The Tides - текст песни, таба, видео

Печатать
Просмотров: 209
Уроки эстрадного вокала в Санкт-Петербурге
Trivium - Washing Away Me In The Tides Solo
Tabbed By Freaking Out
Roadrunner Records

I've been wanting to play this great solo for a while now, but theres no tabs for it, so 
decided to do it myself. Its not 100% but I think its close. Enjoy dudes. I havent put 
hammer ons or pull offs in.

E|---------------------------------------------|
B|-7b-------10-8-------------------------------|
G|-7b--10b~------10-8----8---------------------|
D|-----10b~-----------10---10-8----8-----------|
A|------------------------------10---10-8-10b~-|
D|---------------------------------------------|

Now for the fast bit...
E|----------------------------------------------------------10-12-10----|
B|----------------------------------------10-11-13-12-14-15----------12-|
G|----------------------10-11-13-10-12-13-------------------------------|
D|------8-10-11-9-11-12-------------------------------------------------|
A|-8-10-----------------------------------------------------------------|
D|----------------------------------------------------------------------|

E|----------12-14-12------------------------------------------|
B|-10-12-14----------14-12-14-12-11---------------------------|
G|----------------------------------13-11-13-11----------12b~-|
D|----------------------------------------------13-11-13------|
A|------------------------------------------------------------|
D|------------------------------------------------------------|

Im not sure on this bit.
E|-------------------------13-14-16-------------------------|
B|----------------13-14-16----------13-14-16----------------|
G|-------13-14-16----------------------------13-14-16-------|
D|-12-14----------------------------------------------12-15-|
A|----------------------------------------------------------|
D|----------------------------------------------------------|

E|-------------------15-17-18---------------------------17b17b-17-15-------|
B|----------15-17-18----------15-17-18-------------------------------17-13-|
G|-15-17-18----------------------------15-17-18--16-18---------------------|
D|-------------------------------------------------------------------------|
A|-------------------------------------------------------------------------|
D|-------------------------------------------------------------------------|

E|--------------------------------|------------------------------|
B|-9--7--44~--8bx8bx8bx8bx8b-10-8-|-8b-5-3-55-8------------------|
G|-9--7--44~--8bx8bx8bx8bx8b-10-8-|-8b-5-3-55-8--10-8----8-------|
D|--------------------------------|-------------------10---10----|
A|--------------------------------|---------------------------12-|
D|--------------------------------|------------------------------|

E|---------------------------------------------------------------------|
B|---------------------------------------------------------------------|
G|---------------------8----------------10-----------------12----------|
D|------8---------8-10---10-8-10--10-12----12-10-12--12-14----14-12-14-|
A|-8-10---10-8-10------------------------------------------------------|
D|---------------------------------------------------------------------|

E|------------------------------------------------------------1515-17-20b-|
B|-------12-----------------14-----------------15----------17-------------|
G|-12-14----14-12-14--14-16----16-14-16--15-17----17-15-17----------------|
D|------------------------------------------------------------------------|
A|------------------------------------------------------------------------|
D|------------------------------------------------------------------------|

Thats it. Remember, its not 100% correct but it sounds cool to me.
Any questions email me at metalsupersonic@hotmail.com
Добавлено: 08.05.2012
Другие материалы по этой песне:

Страница создана 17.04.2012
http://primanota.ru/trivium/washing-away-me-in-the-tides-chords.htm
Привет, Гость.
Предлагаем пройти революционный курс по гитаре.
Подарок от PrimaNota.Ru, забирай!