PrimaNota.ru - самый крупный в мире бесплатный архив песенных текстов, аккордов, табулатур и нот


Trivium - To Believe - таба, видео

Регистрация Запомнить меня
Войти через:  Facebook Google Twitter Vk Yandex Mail.ru

Trivium - To Believe - таба, видео

Печатать
Просмотров: 180
Tabbed by: Connor Ford

Band:  Trivium
Song:  To Believe
Album: Vengeance Falls (2013)


Tuning: Drop C# (C#, G#, C#, F#, A#, D#)
(Tune all strings down half a step then drop tune)



Vengeance Falls will be tabbed very soon...

If you're fans of Trivium's early stuff, be sure to check out Shogun
and In Waves on my contributions!

Please rate, comment, correct, anything that will help :)

########
#UPDATE#
########

17/10/13

Kudos to Guitarguy0726 for input on the bridge and solo rhythm


Hammer on:        h
Pull off:         p
Slide up:         /
Slide down:       \
Bend up:          BU(?)
Tapped note:      T
Vibrato:          ~~~
Pinch Harmonic:   PH
Natural Harmonic: NH
Dive Bomb:        DB
After Muting:     M
Pick slide:       X\\\ ('\' indicated duration)

Guitar 1:        Matt Heafy
Guitar 2:        Corey Beaulieu
Guitar 3:        Corey Beaulieu (Additional harmonies)


________________________________________________________________________________



Intro/Chorus
Guitar 2
||----------------------------------||
|o----------------------------------o|
||----------------------------------||
||-8-7-0-10-7-0-8-7-0-7-5-0-8-0-5-4-||
|o----------------------------------o|
||----------------------------------||
|
|Guitar 3
||--------------------------------------------||
|o--------------------------------------------o|
||--------------------------------------------||
||-20-19-0-22-19-0-20-19-0-19-17-0-20-0-17-16-||
|o--------------------------------------------o|
||--------------------------------------------||

Guitar 1
|-----------------|-----------------|-----------------|-----------------|
|-----------------|-----------------|-----------------|-----------------|
|-----------------|-3---------------|-5---------------|-----------------|
|-0---------------|-3---------------|-5---------------|-5---------------|
|-0---------------|-1---------------|-3---------------|-5---------------|
|-0---------------|-----------------|-----------------|-5---------------|


________________________________________________________________________________


Build up
Both guitars
|---------------------------------|---------------------------------|
|---------------------------------|---------------------------------|
|---------------------------------|---------------------------------|
|---------------------------------|---------------------------------|
|-------------0---0-------0-------|-------------0---3-------0-------|
|-0-0-0-------0---0-------0-------|-0-0-0-------0---3-------0-------|

|---------------------------------|---------------------------------|
|---------------------------------|---------------------------------|
|---------------------------------|---------------------------------|
|---------------------------------|---------------------------------|
|-------------0---7-------0-------|---------8---5----------10---7---|
|-0-0-0-------0---7-------0-------|-8---5----------11---7-----------|


________________________________________________________________________________



Verse 1
Both guitars
||-----------------------------------------------------------------||
|o-----------------------------------------------------------------o|
||-----------------------------------------------------------------||
||-----------------------------------------------------------------||
|o-------0-0-0-3-0-------0-0-3-5---------0-0-5-7-------8-5----10-7-o|
||-000---0-0-0-3-0-000---0-0-3-5---000---0-0-5-7---8-5----11-7-----||

________________________________________________________________________________


Verse 2
Both guitars
|-----------------------------------------------------------------|
|-----------------------------------------------------------------|
|---------5---------------3---------------2-----------------------|
|-----------8-7-5-----------7-5-3-----------5-3-2-----------------|
|-----------------------------------------------------8-5----10-7-|
|-000---0---------000---0---------000---0---------8-5----11-7-----|

|-----------------------------------------------------------------|
|-----------------------------------------------------------------|
|---------5---------------3---------------2-----------------------|
|-----------8-7-5-----------7-5-3-----------5-3-2-5-3-2---3-2-----|
|-------------------------------------------------------5-----5-4-|
|-000---0---------000---0---------000---0-------------------------|


________________________________________________________________________________


Pre-chorus
Guitar 1
|-----------------------------------------------------------------|
|-----------------------------------------------------------------|
|-----------------------------------------------------------------|
|-----------------------------------------------------------------|
|-----------------------------------------------------------------|
|-0-0M--0M--0M--0-0-0M—0M---0M--0-2-2M-—2M--2M--2-2-2M--2M--2M--2-|

Guitar 1
|-----------------------------------------------------------------|
|-----------------------------------------------------------------|
|-----------------------------------------------------------------|
|-----------------------------------------------------------------|
|-----------------------------------------------------8-5----10-7-|
|-8-8M--8M--8M--8-8-8M—8M---8M--8-7-7M-—7M--7M--7-8-5----11-7-----|

Guitar 2
  Tr----------------------------------------------------------------------
|--------------------------------------------------------------------------|
|--------------------------------------------------------------------------|
|-------7---------------10--9--7-5----7--12--10--9--------9--15--14--12-10-|
|-7-----------7-8-7----------------8---------------12-11-------------------|
|----5-----5---------5-----------------------------------------------------|
|--------------------------------------------------------------------------|


________________________________________________________________________________


Repeat Intro/Chorus

Repeat Build up

Repeat Verse 1

Repeat Verse 2

Repeat Pre-chorus

Repeat Intro/chorus

________________________________________________________________________________


Bridge
Guitar 1
|----------------------------------------------------------------------|
|----------------------------------------------------------------------|
|-------10-----------9----------7--------------------------------------|
|-7------------7-----------7-10--------------7-------------------------|
|-------------------------------------10-----------8-----10-----7-8----|
|---0-0----0-0---0-0---0-0--------0-0----0-0---0-0---0-0----0-0-----10-|
|
|Guitar 2
|------------------------------------------------------------------|
|------------------------------------------------------------------|
|------------------------------------------------------------------|
|-0-M--------------------------------------------------------------|
|-0-M-----------------------3-5------------------------------------|
|-0-M---------------------7----------------------------------------|


Guitar 1
|----------------------------------------------------------------------|
|----------------------------------------------------------------------|
|-------10-----------9----------7--------------------------------------|
|-7------------7-----------7-10--------------7-------------------------|
|-------------------------------------10-----------8-----10-----7-8~~~-|
|---0-0----0-0---0-0---0-0--------0-0----0-0---0-0---0-0----0-0--------|
|
|Guitar 2
|------------------------------------------------------------------|
|------------------------------------------------------------------|
|------------------------------------------------------------------|
|-0-M--------------------------------------------------------------|
|-0-M-----------------------3-5------------------------------------|
|-0-M---------------------7----------------------------------------|



________________________________________________________________________________


Solo (CKB)
Guitar 1 (Rhythm)
|----------------------------------------------------------------------|
|----------------------------------------------------------------------|
|-------10-----------9----------7--------------------------------------|
|-7------------7-----------7-10--------------7-------------------------|
|-------------------------------------10-----------8-----10-----7-8----|
|---0-0----0-0---0-0---0-0--------0-0----0-0---0-0---0-0----0-0-----10-|

|----------------------------------------------------------------------|
|----------------------------------------------------------------------|
|-------10-----------9----------7--------------------------------------|
|-7------------7-----------7-10--------------7-------------------------|
|-------------------------------------10-----------8-----10-----7-8~~~-|
|---0-0----0-0---0-0---0-0--------0-0----0-0---0-0---0-0----0-0--------|

Guitar 2
|------13~~~-------12~~~-------|-10~~-/17~~~-15~~~-13~~~-------------|
|/10~~-------10~~~-------10-13-|-------------------------17~~~-13-15-|
|------------------------------|-------------------------------------|
|------------------------------|-------------------------------------|
|------------------------------|-------------------------------------|
|------------------------------|-------------------------------------|
|
|Guitar 3
|------------------------------|------------------------------------|
|------10~~~~-------8~~~~------|------/13~~~-11~~~-10~~~------------|
|----------------------------7-|-10~~--------------------12~~~-9-10-|
|/7~~~--------7~~~~-------10---|------------------------------------|
|------------------------------|------------------------------------|
|------------------------------|------------------------------------|

Guitar 2
|------13~~~-------12~~~-------|
|/10~~-------10~~~-------10-13-|
|------------------------------|
|------------------------------|
|------------------------------|
|------------------------------|
|
|Guitar 3
|------------------------------|
|------10~~~~-------8~~~~------|
|----------------------------7-|
|/7~~~--------7~~~~-------10---|
|------------------------------|
|------------------------------|


Guitar 2
|-13tr17----13-----------------------------------------|
|--------15----15--------------------------------------|
|-----------------14-10tr14----10-10\9-----------------|
|---------------------------12-------------------------|
|---------------------------------------10---10/12~~~~-|
|------------------------------------------------------|
|
|Guitar 3
|-17tr20----17-----------------------------------------|
|--------18----18--------------------------------------|
|-----------------17-14tr17----14-14\12----------------|
|---------------------------15----------14---14/15-~~~-|
|------------------------------------------------------|
|------------------------------------------------------|

Guitar 2
|  T        T  T        T  T        T        T        T        T
|----------------------------------------------------------------------|
|----------------------------------------------------------------------|
|-14p12p10-14-14p12p10-14-14p12p10-14p12p10-14p12p10-14p12p10-14p12p10-|
|----------------------------------------------------------------------|
|----------------------------------------------------------------------|
|----------------------------------------------------------------------|
|
|Guitar 3
|  T        T  T        T  T        T        T        T        T
|----------------------------------------------------------------------|
|-18p17p15-18-18p17p15-18-18p17p15-18p17p15-18p17p15-18p17p15-18p17p15-|
|----------------------------------------------------------------------|
|----------------------------------------------------------------------|
|----------------------------------------------------------------------|
|----------------------------------------------------------------------|

Guitar 2
|--------------------------10-12-13-12h13p12-------|
|---------------------10-13------------------13/15-|
|----------------10-12-----------------------------|
|-----------10-12----------------------------------|
|------10-12---------------------------------------|
|-12-15--------------------------------------------|
|
|Guitar 3
|--------------------------13-15-17-15h17p15-------|
|---------------------15-17------------------17/18-|
|----------------14-17-----------------------------|
|-----------15-17----------------------------------|
|------15-17---------------------------------------|
|-12-15--------------------------------------------|

Guitar 2
  Tr-------------------------------
|-10-----12-----13-----17---15-17---|
|-----------------------------------|
|-----------------------------------|
|-----------------------------------|
|-----------------------------------|
|-----------------------------------|
|
|Guitar 3
  Tr-------------------------------
|-13-----15-----17-----20---18-20---|
|-----------------------------------|
|-----------------------------------|
|-----------------------------------|
|-----------------------------------|
|-----------------------------------|

Guitar 2
|-17h22p17----------|
|----------18----18-|
|-------------19----| x6
|-------------------|
|-------------------|
|-------------------|

Guitar 2
|-20BU(22)(20)(22)~~~~-|
|----------------------|
|----------------------|
|----------------------|
|----------------------|
|----------------------|
|
|Guitar 3
|----------------------|
|-20BU(22)(20)(22)~~~~-|
|----------------------|
|----------------------|
|----------------------|
|----------------------|


________________________________________________________________________________


Repeat Pre-chorus

Repeat Intro/Chorus

Repeat Pre-chorus

________________________________________________________________________________


That's all of it, please rate :)
Добавлено: 14.10.2013
Другие материалы по этой песне:

Страница создана 14.08.2013
http://primanota.ru/trivium/to-believe-chords.htm
Привет, Гость.
Предлагаем пройти революционный курс по гитаре.
Подарок от PrimaNota.Ru, забирай!