PrimaNota.ru - самый крупный в мире бесплатный архив песенных текстов, аккордов, табулатур и нот


Trivium - Slave New World - таба, видео

Регистрация Запомнить меня
Войти через:  Facebook Google Twitter Vk Yandex Mail.ru

Trivium - Slave New World - таба, видео

Печатать
Просмотров: 94
Band:  Trivium
Song:  Slave New World
Album: In Waves

Tuning: Drop D (D, A, D, G, B, E)
(Tune the low E down a step)

I checked even the Selpultura versions of this and even some of them
Were incorrect so I thought I should finally do it.

Please rate, comment, correct, anything that helps :)

Hammer on:      h
Pull off:       p
Slide up:       /
Slide down:     \

Guitar 1:        Matt Heafy
Guitar 2:        Corey Beaulieu


_________________________________________________________________________

Intro
Guitar 1
|---------------------------------|---------------------------------|
|---------------------------------|---------------------------------|
|---------------------------------|---------------------------------|
|-0-------2-------3---------------|-0-------2-------3---------------|
|-0-------2-------3---------------|-0-------2-------3---------------|
|-0-------2-------3---------------|-0-------2-------3---------------|
|
|Guitar 2
|---------------------------------|---------------------------------|
|---------------------------------|---------------------------------|
|---------------------------------|---------------------------------|
|---------------------------------|---------------------------------|
|---------------------------------|---------------------------------|
|---------------------------------|---------------------------------|

Both guitars
|---------------------------------|---------------------------------|
|---------------------------------|---------------------------------|
|---------------------------------|---------------------------------|
|-0-------2-------3---------------|-0-------2-------3---------------|
|-0-------2-------3---------------|-0-------2-------3---------------|
|-0-------2-------3---------------|-0-------2-------3---------------|

_________________________________________________________________________


Verse 1
Guitar 1
||---------------------------------||
|o---------------------------------o| x2
||---------------------------------||
||---------------------------------||
|o-----------------------------7\6-o|
||-0-0-0-0-0-0-0-0-0-0-0-0-0-0-7\6-||
|
|Guitar 2
||---------------------------------||
|o---------------------------------o|
||---------------------------------||
||---------------------------------||
|o---------------------------------o|
||---------------------------------||

Both guitars
||---------------------------------||
|o---------------------------------o| x4
||---------------------------------||
||---------------------------------||
|o-----------------------------7\6-o|
||-0-0-0-0-0-0-0-0-0-0-0-0-0-0-7\6-||

_________________________________________________________________________


Verse 2
Both guitars
||---------------------------------|---------------------------------||
|o---------------------------------|---------------------------------o|
||---------------------------------|---------------------------------||
||-0-------2-------3---------------|-0-------3-------6---------------||
|o-0-------2-------3---------------|-0-------3-------6---------------o|
||-0-------2-------3---------------|-0-------3-------6---------------||

_________________________________________________________________________


Repeat Verse 1

_________________________________________________________________________


Verse 3
Both guitar
|-----------------|-----------------|-----------------|-----------------|
|-----------------|-----------------|-----------------|-----------------|
|-----------------|-----------------|-----------------|-----------------|
|-----------------|-----------------|-----------------|-1---------------|
|-0---1---4-------|-0---1---4-------|-0---1---4-------|-1---------------|
|-0---1---4-------|-0---1---4-------|-0---1---4-------|-1---------------|

_________________________________________________________________________


Verse 4
Both guitars
||---------------------------------||
|o---------------------------------o| x4
||---------------------------------||
||---------------------------------||
|o---------0h1-1-----------0h1-1---o|
||-0h1-1-----------0h1-1-----------||

_________________________________________________________________________


Verse 5
Both guitars
||---------------------------------|---------------------------------||
|o---------------------------------|---------------------------------o| x4
||---------------------------------|---------------------------------||
||---------------------------------|-0-------------------------------||
|o-0h1-1---0h1-1---0h1-1---0h1-1---|-0-------------------------------o|
||-0h1-1---0h1-1---0h1-1---0h1-1---|-0-------------------------------||

_________________________________________________________________________


Verse 6
Both guitars
||---------------------------------|---------------------------------||
|o---------------------------------|---------------------------------o| x2
||---------------------------------|---------------------------------||
||---------------------------------|---------------------------------||
|o-0---1---4-------0---1---4-------|-0---1---4-----------------------o|
||-0---1---4---0-0-0---1---4---0-0-|-0---1---4---0-0-0-0-0-0-0-0-0-0-||

_________________________________________________________________________


Verse 7
Both guitars
||---------------------------------|---------------------------------||
|o---------------------------------|---------------------------------o| x4
||---------------------------------|---------------------------------||
||-7/8-8-8-7/8-8-8-7/8-8-8-7/8-8-8-|-7-------------------------------||
|o-5/6-6-6-5/6-6-6-5/6-6-6-5/6-6-6-|-5-------------------------------o|
||---------------------------------|-0-------------------------------||

_________________________________________________________________________


Verse 8
Guitar 1
||-----------------||
|o-----------------o| x4
||-----------------||
||-----------------||
|o---0-----0-------o|
||-0-0---0-0---/12-||

Both guitars
||-----------------||
|o-----------------o| x8
||-----------------||
||-----------------||
|o---0-----0-------o|
||-0-0---0-0---/12-||

_________________________________________________________________________


Solo 1
Guitar 1
||-----------------||
|o-----------------o| x16
||-----------------||
||-----------------||
|o---0-----0---0---o|
||-0-0---0-0---0---||

Guitar 2
(Using a wah wah pedal)
|---------------------------------|---------------------------------|
|---------------------------------|---------------------------------|
|---------------------------------|---------------------------------|
|---------------------------------|---------------------------------|
|-4-4-4-4-4-4-5-5-5-5-5-5-7-7-7-7-|-8-8-8-8-8-8-7-7-7-7-7-7-5-5-5-5-|
|---------------------------------|---------------------------------|

|---------------------------------|---------------------------------------|
|---------------------------------|---------------------------------------|
|-6-6-6-6-6-6-7-7-7-7-7-7-9-9-9-9-|-10-10-10-10-10-10-9-9-9-9-9-9-7-7-7-7-|
|---------------------------------|---------------------------------------|
|---------------------------------|---------------------------------------|
|---------------------------------|---------------------------------------|

||---------------------------------||
|o-----------------5h6-6p5-5h6-6p5-o| x3
||-6h7-7p6-6h7-7p6-----------------||
||---------------------------------||
|o---------------------------------o|
||---------------------------------||

|----------------20---------------|
|---------------------------------|
|-6h7-7p6-6h7/19------------------|
|---------------------------------|
|---------------------------------|
|---------------------------------|

_________________________________________________________________________

Repeat Verse 1

_________________________________________________________________________

Solo 2
Guitar 1 plays verse 1

Guitar 2
(With wah wah pedal)
||-----------------------------------------------------------------------||
|o-6-6-6-6-9-9-9-9-6-6-6-6-9-9-9-9-12-12-12-12-12-12-9-9-9-9-9-9-9-9-9-9-o|
||-----------------------------------------------------------------------||
||-----------------------------------------------------------------------||
|o-----------------------------------------------------------------------o|
||-----------------------------------------------------------------------||

_________________________________________________________________________


Outro
Both guitars
|-------------|
|-------------|
|-------------|
|-0---1---4---|
|-0---1---4---|
|-0---1---4---|

That's all guys, please rate :)
Добавлено: 29.07.2013
Другие материалы по этой песне:

Страница создана 09.06.2012
http://primanota.ru/trivium/slave-new-world-chords.htm
Привет, Гость.
Предлагаем пройти революционный курс по гитаре.
Подарок от PrimaNota.Ru, забирай!