PrimaNota.ru - самый крупный в мире бесплатный архив песенных текстов, аккордов, табулатур и нот


Trivium - Storm - текст песни, таба, видео

Регистрация Запомнить меня
Войти через:  Facebook Google Twitter Vk Yandex Mail.ru

Trivium - Storm - текст песни, таба, видео

Печатать
Просмотров: 172
its all i got so far ..its by ear so its probably not 100% correct but you get the idea ..

|----------------|        |---------------------------------------|--------------------------------|
|------5------6--|        |---------------------------------------|--------------------------------|
|--5-5-5--5-5-5--|        |-10-9-7---9-7------7-------------------|--------7------7-9----7-9-10-12-|
|-7-7--7-7-7--7--|x2 then |--------10----10-9---10-9-7-10-9-7-----|-7-9-10---9-10-----10-----------|
|----------------|        |-----------------------------------10--|--------------------------------|
|----------------|        |---------------------------------------|--------------------------------|

|---17------------------------------------------------------------------------|
|-15----17-17--17h18p17p15--13-12---10-12-10--8-8-10-8-7-8-7-5--5h7p5-4-1-2---|
|-16--------------------------------------------------------------------------|
|-16--------------------------------------------------------------------------|
|-----------------------------------------------------------------------------|
|-----------------------------------------------------------------------------|
   
3 times then on fourth skip the last 3p03p0 and replace it with this riff
|-----------------------------------------------------------|---------------|
|-----------------------------------------------------------|---------------|
|-----------------------------------------------------------|---------------|
|-----------------------------------------------------------|---------------|
|-5p05p0-8p08p0-4p04p0-7p07p0-3p03p0-5p05p0-2p02p0-3p03p0---|-3-2---2-3~~~--|
|-----------------------------------------------------------|-----4---------|

Verse riff
|-------------------------------------| 
|-------------------------------------|
|-------------------------------------|
|-------------------------------------|
|-------------------------------------|
|-0-0-0-0-5-4-5-7--7-5-7-8--8-7-8-10--|two times

|-------------------------------------|
|-------------------------------------|
|-------------------------------------|
|-------------------------------------|
|-0-0-0-0-3-2-3-5--5-3-5-7--7-5-7-8---|
|-------------------------------------|



Добавлено: 12.06.2012
Другие материалы по этой песне:

Страница создана 16.05.2012
http://primanota.ru/trivium/storm-chords.htm
Привет, Гость.
Предлагаем пройти революционный курс по гитаре.
Подарок от PrimaNota.Ru, забирай!