PrimaNota.ru - самый крупный в мире бесплатный архив песенных текстов, аккордов, табулатур и нот


Trivium - Becoming The Dragon - текст песни, таба, бас-таба, видео

Регистрация Запомнить меня
Войти через:  Facebook Google Twitter Vk Yandex Mail.ru

Trivium - Becoming The Dragon - текст песни, таба, бас-таба, видео

Печатать
Просмотров: 320
Авторы музыки: Matt Heafy

Trivium - Becoming The Dragon
Tabbed by rcw110131

Guitar I - BEADGBE - Left Guitar
Guitar II - BEADGBE - Right Guitar
Guitar III - EADGBE - Solo Guitar 1
Guitar IV - EADGBE - Solo Guitar 2


This tab is for the ENTIRE SONG.  Every other tab for this song has some major flaws and missing parts, like for example the kickass solo at the
end.  I'm pretty sure that the wah part of the ending solo is the bassist,
but if you just use your neck pickup and crank up the wah it sounds pretty
much the same on guitar.

Hope you enjoy, please rate/comment.  This took me a looooong time.


UPDATED: 5/21/2007 - Fixed the intro tapping part (one triplet lol) and the
ending solo, as discussed in the comments.  Also [tried to] fix the display
problems with the repeat brackets, hopefully it works this time.


===============================================================================
-Intro- (0:00 - 0:06)


  Guitar I
E|----------------|----------------|----------------|----------------|
B|----------------|----------------|----------------|----------------|
G|----------------|----------------|----------------|----------------|
D|9---------------|8---------------|9---------------|8---------------|
A|7---------------|6---------------|7---------------|6---------------|
E|----------------|----------------|----------------|----------------|
B|----------------|----------------|----------------|----------------|
pm

  Guitar II
E|------------------------|--------------------|
B|------------------------|--------------------|
G|------------------------|--------------------|
D|------------------------|------------5---4---|
A|7-----8-------7---6-----|------------3---2---|
E|--0-0---0-0-0---0---0-0-|0-0-0-0-0-0---------|
B|------------------------|--------------------|
pm  . .   . . .   .   . .  . . . . . .

                            |------------------------|----------------------|
                            |------------------------|----------------------|
                            |------------------------|----------------------|
                            |------------------------|------------11---12---|
                            |7-----8-------7---6-----|-------------9---10---|
                            |--0-0---0-0-0---0---0-0-|0-0-0-0-0-0-----------|
                            |------------------------|----------------------|
                               . .   . . .   .   . .  . . . . . .


===============================================================================
-Intro Solo- (0:07 - 0:20)


  Guitars I + II                                                       __
E|------------------------|--------------------|                         \
B|------------------------|--------------------|                         |
G|------------------------|--------------------|                         |
D|------------------------|------------5---4---|                         |
A|7-----8-------7---6-----|------------3---2---|                         |
E|--0-0---0-0-0---0---0-0-|0-0-0-0-0-0---------|                         |
B|------------------------|--------------------|                         |
pm  . .   . . .   .   . .  . . . . . .                                  x2
                                                                         |
                       |------------------------|----------------------| |
                       |------------------------|----------------------| |
                       |------------------------|----------------------| |
                       |------------------------|------------11---12---| |
                       |7-----8-------7---6-----|-------------9---10---| |
                       |--0-0---0-0-0---0---0-0-|0-0-0-0-0-0-----------| |
                       |------------------------|----------------------| |
                          . .   . . .   .   . .  . . . . . .           __/

  Guitar III
E|----------------------------|-----------------------------|
B|----------------------------|--------10-------------------|
G|--------12-11-9~------------|-----------12-11~------------|
D|------9---------------------|------9----------------------|
A|---10-----------------------|---10------------------------|
E|12--------------------------|12---------------------------|
pm .  . .                       .  . .

E|-----------------------------------|-------------------------------|
B|--------12-------------------------|-------------------------------|
G|-----------14-12-14-12-11-12-11----|11-----------------------------|
D|------9-------------------------14-|---14-12-14-12----14~----------|
A|---10------------------------------|---------------14--------------|
E|12---------------------------------|-------------------------------|
pm .  . .

   T        T        T        T        T        T        T        T
E|15p12h14-15p12h14------------------------------------------------------|
B|------------------15p12h13-15p12h13------------------------------------|
G|------------------------------------14p11h12-14p11h12------------------|
D|------------------------------------------------------16p12h14-16p12h14|
A|-----------------------------------------------------------------------|
E|-----------------------------------------------------------------------|

   T        T        T        T
E|-------------------------------------------------|
B|-------------------------------------------------|   *tap with your pick
G|-------------------------------------------------|     in these 2 bars*
D|-------------------------------------------------|
A|15p12h14-15p12h14--------------------------------|
E|------------------15p12h14-15p12h14-12~----------|

E|-----------------------------------------------------------------------|
B|-----------------------------------------------------------------------|
G|-----------------------------------------------------------------------|
D|---------------------------------------------------------14-16-14-16-17|
A|---------12-------------------14-15-17-14-15-17-17-15-14---------------|
E|12-14-15----15-14-12-12-14-15------------------------------------------|

E|-------------------------------------------------|
B|-------------------------------------------------|
G|------------------------------------16~/\/\/\/\/\| <--whammy bar vibrato
D|------------------16-17-14-16-17-14--------------|
A|15-19-17-15-19-17--------------------------------|
E|-------------------------------------------------|


===============================================================================
-Verse- (0:20 - 0:33)


  Guitars I + II                                                       __
E|------------------------|--------------------|                         \
B|------------------------|--------------------|                         |
G|------------------------|--------------------|                         |
D|------------------------|------------5---4---|                         |
A|7-----8-------7---6-----|------------3---2---|                         |
E|--0-0---0-0-0---0---0-0-|0-0-0-0-0-0---------|                         |
B|------------------------|--------------------|                         |
pm  . .   . . .   .   . .  . . . . . .                                  x2
                                                                         |
                       |------------------------|----------------------| |
                       |------------------------|----------------------| |
                       |------------------------|----------------------| |
                       |------------------------|------------11---12---| |
                       |7-----8-------7---6-----|-------------9---10---| |
                       |--0-0---0-0-0---0---0-0-|0-0-0-0-0-0-----------| |
                       |------------------------|----------------------| |
                          . .   . . .   .   . .  . . . . . .           __/

===============================================================================
-Chorus- (0:34 - 0:50)


  Guitars I + II
E|------------------------|------------------------|
B|------------------------|------------------------|
G|------------------------|------------------------|
D|------------------------|------------------------|
A|------9--9--------7--7--|------5--5--------4--4--|
E|7-7-7-7--7--5-5-5-5--5--|3-3-3-3--3--2-2-2-2--2--|
B|------------------------|------------------------|
pm. . .       . . .        . . .       . . .

                            then                                          __
                                                                            \
E|------------------|----------------|------------------|                   |
B|------------------|----------------|------------------|                   |
G|------------------|----------------|------------------|                   |
D|------------------|----------------|------------------|                   |
A|------2-------5---|4---------------|------2-------5-\\|                   |
E|0-0-0-0-------3---|2---------------|0-0-0-0-------3-\\|                   |
B|------------------|----------------|------------------|                   |
pm. . .                               . . .                                x2
                                                                            |
                                                    |--------------------|  |
                                                    |--------------------|  |
                                                    |--------------------|  |
                                                    |--------------------|  |
                                                    |--------------------|  |
                                                    |2---------2---------|  |
                                                    |0---0-0-0-0---0-0-0-|  |
                                                         . . .     . . .  __/


===============================================================================

-Repeat Verse- (0:51 - 1:04)

-Repeat Chorus- (1:04 - 1:20)

===============================================================================
-Breakdown- (1:21 - 1:53)


  Guitars I + II
E|----------------|----------------|----------------|
B|----------------|----------------|----------------|
G|----------------|----------------|----------------|
D|----------------|----------------|----------------|
A|----------------|----------------|----------------|
E|----------------|----------------|----------------|
B|0000--0000--0000|--0000--0000--00|00--0000--0000--|
pm....  ....  ....   ....  ....  .. ..  ....  ....

                             then

  Guitars I + II
E|----------------|----------------|
B|----------------|----------------|
G|----------------|------------4422|
D|----------------|------222111----|
A|----------------|000333----------|
E|---------0002233|----------------|
B|000111444-------|----------------|

                             then

  Guitars I + II
E|----------------|----------------|----------------|
B|----------------|----------------|----------------|
G|----------------|----------------|----------------|
D|----------------|----------------|----------------|
A|----------------|----------------|----------------|
E|----------------|----------------|----------------|
B|0000--0000--0000|--0000--0000--00|00--0000--0000--|
pm....  ....  ....   ....  ....  .. ..  ....  ....

                             then

  Guitar I                                 Guitar II
E|----------------|----------------|     E|----------------|----------------|
B|----------------|----------------|     B|----------------|----------------|
G|----------------|------------4422|     G|----------------|------------4455|
D|----------------|------222111----|     D|----------------|------222111----|
A|----------------|000333----------|     A|----------------|000333----------|
E|---------0002233|----------------|     E|---------0002233|----------------|
B|000111444-------|----------------|     B|000111444-------|----------------|

                             then

  Guitars I + II
E|-------------------------------|---------------------------------|
B|-------------------------------|---------------------------------|
G|-------------------------------|---------------------------------|
D|-------------------------------|---------------------------------|
A|-------------------------------|---------------------------------|
E|-------------------------------|---------------------------------|
B|7-0-0-8-0-0-7-0-0-8-0-0-7-0-8-0|7-0-0-8-0-0-7-0-0-8-0-0-10-0-12-0|
pm. . . . . . . . . . . . . . . . . . . . . . . . . . . .  . .  . .

                             then

  Guitars I + II
E|----------------|----------------|
B|----------------|----------------|
G|----------------|------------4422|
D|----------------|------222111----|
A|----------------|000333----------|
E|---------0002233|----------------|
B|000111444-------|----------------|

                             then

  Guitars I + II
E|----------------|----------------|----------------|
B|----------------|----------------|----------------|
G|----------------|----------------|----------------|
D|----------------|----------------|----------------|
A|----------------|----------------|----------------|
E|----------------|----------------|----------------|
B|0000--0000--0000|--0000--0000--00|00--0000--0000--|
pm....  ....  ....   ....  ....  .. ..  ....  ....

                             then

  Guitar I                                 Guitar II
E|----------------|----------------|     E|----------------|----------------|
B|----------------|----------------|     B|----------------|----------------|
G|----------------|------------4422|     G|----------------|------------4455|
D|----------------|------222111----|     D|----------------|------222111----|
A|----------------|000333----------|     A|----------------|000333----------|
E|---------0002233|----------------|     E|---------0002233|----------------|
B|000111444-------|----------------|     B|000111444-------|----------------|


===============================================================================
Fill Thingy (1:53 - 2:26)

                                                                        __
  Guitars I + II                                                          \
E|-------------------------------|---------------------------------|      |
B|-------------------------------|---------------------------------|      |
G|-------------------------------|---------------------------------|      |
D|-------------------------------|---------------------------------|      |
A|-------------------------------|---------------------------------|      |
E|-------------------------------|---------------------------------|      |
B|7-0-0-8-0-0-7-0-0-8-0-0-7-0-8-0|7-0-0-8-0-0-7-0-0-8-0-0-10-0-12-0|      |
pm. . . . . . . . . . . . . . . . . . . . . . . . . . . .  . .  . .       |
                                                                         x2
E|-------------------------------|-------------------------------|        |
B|-------------------------------|-------------------------------|        |
G|-------------------------------|-------------------------------|        |
D|-------------------------------|-------------------------------|        |
A|-------------------------------|-------------------------------|        |
E|-------------------------------|-------------------------------|        |
B|7-0-0-8-0-0-7-0-0-8-0-0-7-0-8-0|7-0-0-8-0-0-7-0-0-8-0-0-2-0-3-0|        |
pm. . . . . . . . . . . . . . . . . . . . . . . . . . . . . . . .       __/

                             then
                                                                        __
  Guitars I + II                                                          \
E|-------------------------------|---------------------------------|      |
B|-------------------------------|---------------------------------|      |
G|-------------------------------|---------------------------------|      |
D|-------------------------------|---------------------------------|      |
A|-------------------------------|---------------------------------|      |
E|-------------------------------|---------------------------------|      |
B|7-0-0-8-0-0-7-0-0-8-0-0-7-0-8-0|7-0-0-8-0-0-7-0-0-8-0-0-10-0-12-0|      |
                                                                          |
                                                                         x2
E|-------------------------------|-------------------------------|        |
B|-------------------------------|-------------------------------|        |
G|-------------------------------|-------------------------------|        |
D|-------------------------------|-------------------------------|        |
A|-------------------------------|-------------------------------|        |
E|-------------------------------|-------------------------------|        |
B|7-0-0-8-0-0-7-0-0-8-0-0-7-0-8-0|7-0-0-8-0-0-7-0-0-8-0-0-2-0-3-0|        |
                                                                        __/

                             then

  Guitar I
E|-------------------------------|---------------------------------|
B|-------------------------------|---------------------------------|
G|-------------------------------|---------------------------------|
D|-------------------------------|---------------------------------|
A|-------------------------------|---------------------------------|
E|-------------------------------|---------------------------------|
B|7-0-0-8-0-0-7-0-0-8-0-0-7-0-8-0|7-0-0-8-0-0-7-0-0-8-0-0-10-0-12-0|
pm. . . . . . . . . . . . . . . . . . . . . . . . . . . .  . .  . .

  Guitar II
E|-------------------------------|-------------------------------|
B|-------------------------------|-------------------------------|
G|-------------------------------|-------------------------------|
D|-------------------------------|-------------------------------|
A|-------------------------------|-------------------------------|
E|-------------------------------|-------------------------------|
B|0-0-0-0-0-0-0-0-0-0-0-0-0-0-0-0|0-0-0-0-0-0-0-0-0-0-0-0-0-0-0-0|
pm. . . . . . . . . . . . . . . . . . . . . . . . . . . . . . . .

                             then

  Guitar I
E|----------------|----------------|
B|----------------|----------------|
G|----------------|----------------|
D|----------------|8tr9------------|
A|5--4--2-7--5--4-|----------------|                tr = trill
E|----------------|----------------|
B|----------------|----------------|         (hammer-on and pull-off
                                                   really fast)

  Guitar II
E|----------------|----------------|
B|----------------|----------------|
G|----------------|----------------|
D|----------------|4tr5------------|
A|--------4--2--1-|----------------|
E|7--6--3---------|----------------|
B|----------------|----------------|


===============================================================================
-Middle Solo- (2:27 - 2:41)


  Guitars I + II                                                       __
E|------------------------|--------------------|                         \
B|------------------------|--------------------|                         |
G|------------------------|--------------------|                         |
D|------------------------|------------5---4---|                         |
A|7-----8-------7---6-----|------------3---2---|                         |
E|--0-0---0-0-0---0---0-0-|0-0-0-0-0-0---------|                         |
B|------------------------|--------------------|                         |
pm  . .   . . .   .   . .  . . . . . .                                  x2
                                                                         |
                       |------------------------|----------------------| |
                       |------------------------|----------------------| |
                       |------------------------|----------------------| |
                       |------------------------|------------11---12---| |
                       |7-----8-------7---6-----|-------------9---10---| |
                       |--0-0---0-0-0---0---0-0-|0-0-0-0-0-0-----------| |
                       |------------------------|----------------------| |
                          . .   . . .   .   . .  . . . . . .           __/

  Guitar III
E|-----------------------------------------------------------------------|
B|-----------------------------------------------------------------------|
G|-----------------------------------------------------------------------|
D|---------------------------------------------12-12----------12-12-14-16|
A|---------12----------------12-14-15-12-14-15-------14-12-14------------|
E|12-14-15----15-14-12-14-15---------------------------------------------|

E|-------------------------------------------------|
B|-------------------------------------------------|
G|---------------------------12-14-16-16~----------|
D|16-12-14-16-17-16-12-14-16-----------------------|
A|-------------------------------------------------|
E|-------------------------------------------------|

E|--------------------------------------------------------------------|
B|---------------------------14-14-------------------------------15---|
G|------------------------14-------11-12-14-16-14-14-11-12-14-16----16|
D|18---17---16---16-17-19---------------------------------------------|
A|--------------------------------------------------------------------|
E|--------------------------------------------------------------------|

E|------------------15-12-14-14-15-17-19~----------|
B|------15-15-13-12--------------------------------|
G|16-17--------------------------------------------|
D|-------------------------------------------------|
A|-------------------------------------------------|
E|-------------------------------------------------|

E|19-19-19-19-19-19-15-----------------------------|
B|---------------------17--------------------------|
G|------------------------16-----------------------|
D|---------------------------14-13-----------------|
A|---------------------------------14--------------|
E|------------------------------------12~----------|

                         then

  Guitar III
E|----------------------------|
B|----------------------------|
G|-9----8---------------------|
D|----------10----9-----------|
A|----------------------------|
E|----------------------------|

E|-----------------------------------------------------------------------|
B|-----------------------------------------------------------------------|
G|-----------------------------------------------------------------------|
D|10-13-14-14-13-10-10-13-14-14-13-10-10-13-14-14-13-10-10-13-14-14-13-10|
A|-----------------------------------------------------------------------|
E|-----------------------------------------------------------------------|

E|---------------------------|-----------------|
B|---------------------------|-----------------|
G|12---11---9---8------------|-----------------|
D|------------------10---9---|9~---------------|
A|---------------------------|-----------------|
E|---------------------------|-----------------|


  Guitar IV
E|----------------------------|
B|----------------------------|
G|12---11---------------------|
D|----------14---13-----------|
A|----------------------------|
E|----------------------------|

E|---------------------------------------------------------------|
B|---------------------------------------------------------------|
G|9-11-12-12-11-9-9-11-12-12-11-9-9-11-12-12-11-9-9-11-12-12-11-9|
D|---------------------------------------------------------------|
A|---------------------------------------------------------------|
E|---------------------------------------------------------------|

E|------------------------------|-----------------|
B|12----------------------------|-----------------|
G|-----14---12---11-------------|-----------------|
D|--------------------14---13---|13~--------------|
A|------------------------------|-----------------|
E|------------------------------|-----------------|


===============================================================================

-Repeat Verse- (2:41 - 2:54)

===============================================================================
-Slightly Altered Chorus- (2:54 - 3:14)


Guitars I + II
E|------------------------|------------------------|
B|------------------------|------------------------|
G|------------------------|------------------------|
D|------------------------|------------------------|  x2
A|------9--9--------7--7--|------5--5--------4--4--|
E|7-7-7-7--7--5-5-5-5--5--|3-3-3-3--3--2-2-2-2--2--|
B|------------------------|------------------------|
pm. . .       . . .        . . .       . . .

                            then                                          __
                                                                            \
E|------------------|----------------|------------------|                   |
B|------------------|----------------|------------------|                   |
G|------------------|----------------|------------------|                   |
D|------------------|----------------|------------------|                   |
A|------2-------5---|4---------------|------2-------5-\\|                   |
E|0-0-0-0-------3---|2---------------|0-0-0-0-------3-\\|                   |
B|------------------|----------------|------------------|                   |
pm. . .                               . . .                                x2
                                                                            |
                                                    |--------------------|  |
                                                    |--------------------|  |
                                                    |--------------------|  |
                                                    |--------------------|  |
                                                    |--------------------|  |
                                                    |2---------2---------|  |
                                                    |0---0-0-0-0---0-0-0-|  |
                                                         . . .     . . .  __/


===============================================================================
-Outro Buildup- (3:14 - 3:29)


  Guitar I
E|----------------|----------------|----------------|----------------|
B|----------------|----------------|----------------|----------------|
G|----------------|----------------|----------------|----------------|
D|----------------|----------------|----------------|----------------|
A|2---------------|----------------|3---------------|----------------|
E|2---------------|----------------|3---------------|----------------|
B|0---------------|----------------|1---------------|----------------|

E|----------------|----------------|----------------|----------------|
B|----------------|----------------|----------------|----------------|
G|----------------|----------------|----------------|----------------|
D|----------------|----------------|----------------|----------------|
A|----------------|----------------|----------------|----------------|
E|2---------------|----------------|----------------|----------------|
B|0-0-0-0-0-0-0-0-|0-0-0-0-0-0-0-0-|1-1-1-1-1-1-1-1-|1-1-1-1-1-1-1-1-|
pm  . . . . . . .  . . . . . . . .  . . . . . . . .  . . . . . . . .

  Guitar II
E|----------------|----------------|----------------|----------------|
B|----------------|----------------|----------------|----------------|
G|----------------|----------------|----------------|----------------|
D|----------------|----------------|----------------|----------------|  x2
A|----------------|----------------|----------------|----------------|
E|2-------2-------|--3-3-3---3-3-3-|3-------3-------|--3-3-3---3-3-3-|
B|0-0-0-0-0---0-0-|0-5-5-5-5-4-4-4-|1-1-1-1-1---1-1-|1-5-5-5-5-4-4-4-|
pm  . . .     . .  .       .          . . .     . .  .       .


===============================================================================
-Outro Solo 1- (3:29 - 3:43)


  Guitars I + II
E|----------------|----------------|----------------|----------------|
B|----------------|----------------|----------------|----------------|
G|----------------|----------------|----------------|----------------|
D|----------------|----------------|----------------|----------------|  x2
A|----------------|----------------|----------------|----------------|
E|2-------2-------|--3-3-3---3-3-3-|3-------3-------|--3-3-3---3-3-3-|
B|0-0-0-0-0---0-0-|0-5-5-5-5-4-4-4-|1-1-1-1-1---1-1-|1-5-5-5-5-4-4-4-|
pm  . . .     . .  .       .          . . .     . .  .       .


  Guitar III                                                       __
E|------------------------------------------------|                  \
B|------------------------------------------------|                  |
G|------------------------------------------------|                  |
D|------------------------------7-----------7-9-10|                  |
A|----6-7-6-------6-6-7-9-6-7-9---9-7-6-7-9-------|                  |
E|7-8-------8-7-8---------------------------------|                  |
                                                                     |
E|--------------------------------------------------------|          |
B|--------------------------------------8-------------8-10|          |
G|-------8-------------8-9-11-8-9-11-11---11-9-8-9-11-----|          |
D|7-9-10---10-9-7-9-10------------------------------------|          |
A|--------------------------------------------------------|          |
E|--------------------------------------------------------|          |
                                                                    x2
E|---------------------------7-8-11-11-12-11-8-11-8-7-----------|    |
B|12-10-8---13-12-10-8-10-12--------------------------10-12-10-8|    |
G|--------9-----------------------------------------------------|    |
D|--------------------------------------------------------------|    |
A|--------------------------------------------------------------|    |
E|--------------------------------------------------------------|    |
                                                                     |
E|---------------------------------------------------|               |
B|10-8----8------------------------------------------|               |
G|-----11---9-11-9-8----8----------------------------|               |
D|-------------------10---10-9-10-9-10-9-7---6*~-----|               |
A|-----------------------------------------9---------|               |
E|---------------------------------------------------|               |
                                                                   __/


===============================================================================
-Outro Solo 2- (3:44 - end)


  Guitars I + II
E|----------------|----------------|----------------|----------------|
B|----------------|----------------|----------------|----------------|
G|----------------|----------------|----------------|----------------|
D|----------------|----------------|----------------|----------------|  x8
A|----------------|----------------|----------------|----------------|
E|2-------2-------|--3-3-3---3-3-3-|3-------3-------|--3-3-3---3-3-3-|
B|0-0-0-0-0---0-0-|0-5-5-5-5-4-4-4-|1-1-1-1-1---1-1-|1-5-5-5-5-4-4-4-|
pm  . . .     . .  .       .          . . .     . .  .       .


  Guitar III (change to neck pickup and kick on the wah now)

  T     T     T     T     T     T     T     T
E|-----------------------------------------------|
B|-----------------------------------------------|
G|-----------------------------------------------|
D|7p4h5-7p4h5-7p4h5-7p4h5-7p4h5-7p4h5-7p4h5-7p4h5|
A|-----------------------------------------------|
E|-----------------------------------------------|

  T     T     T     T     T     T     T     T
E|-----------------------------------------------|
B|-----------------------------------------------|
G|-----------------------------------------------|
D|7p4h5-7p4h5-7p4h5-7p4h5-9p4h5-7p4h5-9p4h5-7p4h5|
A|-----------------------------------------------|
E|-----------------------------------------------|

   T     T     T     T     T     T     T     T
E|------------------------------------------------|
B|------------------------------------------------|
G|------------------------------------------------|
D|10p5h7-9p5h7-9p5h7-9p5h7-9p5h7-9p5h7-9p5h7-9p5h7|
A|------------------------------------------------|
E|------------------------------------------------|

   T      T      T     T      T     T      T     T
E|----------------------------------------------------|
B|----------------------------------------------------|
G|----------------------------------------------------|
D|10p5h7-13p5h7-10p5h7-9p5h7-10p5h7-9p5h7-10p5h7-9p5h7|
A|----------------------------------------------------|
E|----------------------------------------------------|

  T     T     T     T     T     T     T     T
E|-----------------------------------------------|
B|-----------------------------------------------|
G|-----------------------------------------------|
D|7p4h5-7p4h5-7p4h5-7p4h5-5p4h5-7p4h5-9p4h5-7p4h5|
A|-----------------------------------------------|
E|-----------------------------------------------|

  T     T     T     T     T      T
E|-----------------------------------------|
B|-----------------------------------------|
G|-----------------------------------------|
D|9p4h5-7p4h5-9p4h5-7p4h5-9p4h5-10p4h5-7\\\|
A|-----------------------------------------|
E|-----------------------------------------|


E|------------------|-----------------|-----------------|------------------|
B|------------------|-----------------|-----------------|------------------|
G|------------------|-----------------|-----------------|------------------|
D|----9-------------|-----------------|7-------9-----10-|------7-9b10r~----|
A|2/7---7-9-b10-r-7-|9-------------7h9|---9--7----7-----|7--9--------------|
E|------------------|-----------------|-----------------|------------------|

E|----------------|----------------|-------------------|
B|----------------|----------------|-------------------|
G|----------------|----------------|-------------------|
D|----7-----------|----------------|-------------------|
A|4/9---9-7---9\7-|7\6-6/7-/9------|9-----6h7h9-----6h7|
E|----------------|----------------|-------------------|

                                             |-----------------------------|
                                             |-----------------------------|
                                             |-----------------------------|
                                             |-----------------------------|
                                             |h9p6h7h9p6h7h9p6h7h9p6h7h9-6/|
                                             |-----------------------------|

E|-------------------|-------------------|----------------|----------------|
B|-------------------|-------------------|----------------|----------------|
G|-------------------|-------------------|----------------|----------------|
D|-------------------|-------------------|----9-----------|----------------|
A|-10--9-7-7h9p7----9|-10--9-7-7h9p7-----|2/7---7-7\6-6-6-|6-7-7-9---------|
E|-------------------|-------------------|----------------|----------------|

E|-----------------|------------------|-----------------|------------------|
B|-----------------|------------------|-----------------|------------------|
G|-----------------|------------------|-----------------|------------------|
D|----9---10-------|------------------|----9---10---9---|------------------|
A|2/7---7----7-7-6-|6-7-7-10-10-------|2/7---7----7---7-|7-6-6b7rbrbrbr~---|
E|-----------------|------------------|-----------------|------------------|
                                       |----starts fading out now----------|

E|-----------------|------------------|----------------|------------------|
B|-----------------|------------------|----------------|------------------|
G|-----------------|------------------|----------------|------------------|
D|----9---10---9---|------------------|----------------|------------------|
A|2/7---7----7---9-|9-9b10rbrbrbr~----|2--3--2--2-0--2-|-3--2--3p2p0---2--|
E|-----------------|------------------|----------------|------------------|

E|--------------------|----------------|--------------------|---------------|
B|--------------------|----------------|--------------------|---------------|
G|--------------------|----------------|--------------------|---------------|
D|--------------------|----------------|------------------slowly-release----|
A|3--3h5p3-5-3-2/7----|-------9~-----7-|-9-b9.5-r-7-9b10---while picking----|
E|--------------------|----------------|--------------------string rapidly--|

THE END


h = hammer-on
p = pull-off
b = bend
r = release
/ = slide up
\ = slide down
T = tap
~ = vibrato
* = artificial harmonic
tr = trill
Добавлено: 08.06.2013
Другие материалы по этой песне:

Страница создана 06.03.2012
http://primanota.ru/trivium/becoming-the-dragon-chords.htm
Привет, Гость.
Предлагаем пройти революционный курс по гитаре.
Подарок от PrimaNota.Ru, забирай!