PrimaNota.ru - самый крупный в мире бесплатный архив песенных текстов, аккордов, табулатур и нот


Trivium - In Waves Live - таба, видео

Регистрация Запомнить меня
Войти через:  Facebook Google Twitter Vk Yandex Mail.ru

Trivium - In Waves Live - таба, видео

Печатать
Просмотров: 651
Band: Trivium
Song: In Waves


This is Trivium performing their first dingle from their fifth studio album,
In Waves.

This version is slightly different to the album version, but only just :P

Link: http://www.youtube.com/watch?v=KxOhc-dfEDY

Tuning: Drop C# (C#, G#, C#, F#, A#, D#)
(Tune all strings down ½ a step and then drop tune)

Hammer on:  h
Pull off:   p
Slide up:   /
Slide down: \
Vibrato:    ~~~
Palm mute:  PM
Bend up:    BU(?)

Intro/Verse
 “In waves!”  PM-----------------------------------------------|
||--|------------------------|---------------------------------|
||--|------------------------|---------------------------------|
||--|------------------------|---------------------------------|
||--|------------------------|---------------------------------|
||--|------------------------|---------------------------------|
||--|--15p0---0---0-0-0----0-|---0-0---0----0-0---0-0---0------|

          PM----------------------------------------------------|
|------------------------|--------------------------------------|
|------------------------|--------------------------------------|
|------------------------|--------------------------------------|
|------------------------|--------------------------------------|
|------------------------|--------------------------------------|
|--15p0---0---0-0-0----0-|---0-0---0--10-10-10-10-10-10-10-10---|

          PM-----------------------------------------------|
|------------------------|---------------------------------|
|------------------------|---------------------------------|
|------------------------|---------------------------------|
|------------------------|---------------------------------|
|------------------------|---------------------------------|
|--15p0---0---0-0-0----0-|---0-0---0----0-0---0-0---0------|

          PM-------------------------------------------------|
|------------------------|-----------------------------------|
|------------------------|-----------------------------------|
|------------------------|-----------------------------------|
|------------------------|-----------------------------------|
|------------------------|-----------------------------------|
|--15p0---0---0-0-0----0-|---0-0---0-----10-10-10-10-10-10---|

          PM-----------------------------------------------|
|------------------------|---------------------------------|
|------------------------|---------------------------------|
|------------------------|---------------------------------|
|------------------------|---------------------------------|
|------------------------|---------------------------------|
|--15p0---0---0-0-0----0-|---0-0---0----0-0---0-0---0------|

          PM----------------------------------------------------|
|------------------------|--------------------------------------|
|------------------------|--------------------------------------|
|------------------------|--------------------------------------|
|------------------------|--------------------------------------|
|------------------------|--------------------------------------|
|--15p0---0---0-0-0----0-|---0-0---0--10-10-10-10-10-10-10-10---|

          PM-----------------------------------------------|
|------------------------|---------------------------------|
|------------------------|---------------------------------|
|------------------------|---------------------------------|
|------------------------|---------------------------------|
|------------------------|---------------------------------|
|--15p0---0---0-0-0----0-|---0-0---0----0-0---0-0---0------|

         PM-------|  |-Drum fill--------------------------------|
|------------------------|--------------------------------------|
|------------------------|--------------------------------------|
|------------------------|--------------------------------------|
|------------------------|--------------------------------------|
|------------------------|--------------------------------------|
|--15p0---0---0-0-0------|------------10-10-10-10-10-10-10-10---|


Chorus

Matt (Rhythm)
|---------------------------------|---------------------------------|
|---------------------------------|---------------------------------|
|---------------------------------|---------------------------------|
|---------------------------------|---------------------------------|
|-0-0-0-0-0-0-0-0-0-0-0-0-0-0-0-0-|-3-3-3-3-3-3-3-3-3-3-3-3-3-3-3-3-|
|-0-0-0-0-0-0-0-0-0-0-0-0-0-0-0-0-|-3-3-3-3-3-3-3-3-3-3-3-3-3-3-3-3-|

|---------------------------------|---------------------------------|
|---------------------------------|---------------------------------|
|---------------------------------|---------------------------------|
|---------------------------------|---------------------------------|
|-8-8-8-8-8-8-8-8-8-8-8-8-8-8-8-8-|-7-7-7-7-7-7-7-7-7-7-7-7-7-7-7-7-|
|-8-8-8-8-8-8-8-8-8-8-8-8-8-8-8-8-|-7-7-7-7-7-7-7-7-7-7-7-7-7-7-7-7-|

Corey (Lead)

|-5-----0-----8---|---0-----5-----0-|
|---6-----6-----6-|-----6-----6-----|
|-----7-----7-----|-7-----7-----7---|
|-----------------|-----------------|
|-----------------|-----------------|
|-----------------|-----------------|

|-5-----0-----8---|---0-----5-----0-|
|---6-----6-----6-|-----6-----6-----|
|-----5-----5-----|-5-----5-----5---|
|-----------------|-----------------|
|-----------------|-----------------|
|-----------------|-----------------|

|-6-----0-----8---|---0-----6-----0-|
|---6-----6-----6-|-----6-----6-----|
|-----7-----7-----|-7-----7-----7---|
|-----------------|-----------------|
|-----------------|-----------------|
|-----------------|-----------------|

|-5-----5-----5---|-5-----5-----5---|
|---6-----6-----6-|---6-----6-----6-|
|-----7-----7-----|-----7-----7-----|
|-----------------|-----------------|
|-----------------|-----------------|
|-----------------|-----------------|

Interlude
(Quite riff after first Chorus)
|-5-5-5-0-0-0-8-8-|-8-0-0-0-5-5-0-0-|
|-6-6-6-6-6-6-6-6-|-6-6-6-6-6-6-6-6-|
|-7-7-7-7-7-7-7-7-|-7-7-7-7-7-7-7-7-|
|-----------------|-----------------|
|-----------------|-----------------|
|-----------------|-----------------|

Repeat Intro/Verse

Repeat Chorus x2

Pre-solo Verse

Matt
   PM------------------------------------|
||---------------------------------------|
||---------------------------------------|
||---------------------------------------|
||---------------------------------------|
||-------------0-0-0-0-0-0-0-0-0-0-0-0---|
||-0-0-0---0-0-0-0-0-0-0-0-0-0-0-0-0-0---|

|---------------------------------|
|---------------------------------|
|---------------------------------|
|---------------------------------|
|-8-8-8-8-8-8-8-8-5-5-5-5-5-5-5-5-|
|-8-8-8-8-8-8-8-8-5-5-5-5-5-5-5-5-|

|---------------------------------|
|---------------------------------|
|---------------------------------|
|---------------------------------|
|-0-0-0-0-0-0-0-0-0-0-0-0-0-0-0-0-|
|-0-0-0-0-0-0-0-0-0-0-0-0-0-0-0-0-|

|----------------------------------||
|---------------------------------o||
|----------------------------------||
|----------------------------------||
|-8-8-8-8-8-8-8-8-5-5-5-5-5-5-5-5-o||
|-8-8-8-8-8-8-8-8-5-5-5-5-5-5-5-5--||

Corey
   PM-------------------------------------------------|
||----------------------------------------------------|
||----------------------------------------------------|
||--------------11-11-11-11-11-11-11-11-12-12-11-11---|
||----------------------------------------------------|
||---------------9--9--9--9--9--9--9--9-10-10--9--9---|
||-0-0-0---0-0----------------------------------------|

|---------------------------------------------|
|---------------------------------------------|
|-14-14-14-14-12-12-12-12-10-10-10-10-9-9-9-9-|
|---------------------------------------------|
|-12-12-12-12-10-10-10-10--8--8--8--8-7-7-7-7-|
|---------------------------------------------|

|-------------------------------------------------|
|-------------------------------------------------|
|-12-12-12-12-11-11-11-11-11-11-11-11-12-12-11-11-|
|-------------------------------------------------|
|-10-10-10-10--9--9--9--9--9--9--9--9-10-10--9--9-|
|-------------------------------------------------|

|----------------------------------------------||
|---------------------------------------------o||
|-14-14-14-14-12-12-12-12-10-10-10-10-9-9-9-9--||
|----------------------------------------------||
|-12-12-12-12-10-10-10-10--8--8--8--8-7-7-7-7-o||
|----------------------------------------------||

Solo 1

|---------------------------|------------------|
|---------------------------|------------------|
|---------------------------|-------8~~~~~~----|
|---5--4--5~~~---7--5--7~~~-|-8--7-------------|
|---------------------------|------------------|
|---------------------------|------------------|

|---------------------------|------------------|
|---------------------------|------------------|
|---------------------------|-------5~~~~~~----|
|---5--4--5~~~---7--5--7~~~-|-8--7-------------|
|---------------------------|------------------|
|---------------------------|------------------|

|---------------------------|------------------|
|---------------------------|------------------|
|---------------------------|--7-5h7p5-------5-|
|---5--4--5~~~---7--5--7~~~-|----------8-7-8---|
|---------------------------|------------------|
|---------------------------|------------------|

|------------------------|-------------|
|------------------------|-------------|
|-7/12~~~~~~~~~-10--8--7h|-8p7---------|
|------------------------|-----10-8-10-|
|------------------------|-------------|
|------------------------|-------------|

|-----------------------|------------------------|
|-----------------------|------------------------|
|-5h7h8-7~~--7h8h10-8~~-|---12-12-12-12-11-11~~~-|
|-----------------------|------------------------|
|-----------------------|------------------------|
|-----------------------|------------------------|

|-----------------------|------------------------|
|-----------------------|---11-11-11-11-10-10~~~-|
|-5h7h8-7~~--7h8h10-8~~-|------------------------|
|-----------------------|------------------------|
|-----------------------|------------------------|
|-----------------------|------------------------|

|-17h18p17h18p17----17h18p17h18p17----17h18p17h18p17--|
|-----------------------------------------------------|
|-----------------------------------------------------|
|-----------------------------------------------------|
|-----------------------------------------------------|
|-----------------------------------------------------|

|-17h18p17h18p17h18p17h18p17h18p17h18p17h18--|
|--------------------------------------------|
|--------------------------------------------|
|--------------------------------------------|
|--------------------------------------------|
|--------------------------------------------|

|-------------------17BU(18)(17)-|-15-------------------|
|-18BU(20)~~~~~~~----------------|----18-16-15----15~~~-|
|--------------------------------|-------------17-------|
|--------------------------------|----------------------|
|--------------------------------|----------------------|
|--------------------------------|----------------------|

Repeat Pre-solo Verse

Solo 2

                                  PM--|
|------------------|---------------------|
|------------------|---------------------|
|-7------8------11-|---11~~~--11---------|
|------0------0----|--------------0-0-0--|
|------------------|---------------------|
|------------------|---------------------|

|------------------|------------------------|
|------------------|------------------------|
|-11-----12-----14-|-14h15p14\12-11-12-11-8-|
|------------------|------------------------|
|------------------|------------------------|
|------------------|------------------------|

|------------------|---------------------|
|------------------|---------------------|
|--7------8------5-|----7------2---------|
|------------------|---------------------|
|------------------|---------------------|
|------------------|---------------------|

|------------------------------|---------------------------------|
|----------------------13------|--13---13---13---13---16~~~~~~~~-|
|----------------------15BU(17)|-(17)-(17)-(17)-(17)--18BU(20)~~-|
|--7--8-7h8p7p5\4-5------------|---------------------------------|
|------------------------------|---------------------------------|
|------------------------------|---------------------------------|

|-----------------------------------|-------------------------------|
|-15~~~~~~~~~-----15-19-19BU(20)~~~-|--19-15-19BU(20)(19)~~~--15-13-|
|-17BU(19)~~~-----------------------|-------------------------------|
|-----------------------------------|-------------------------------|
|-----------------------------------|-------------------------------|
|-----------------------------------|-------------------------------|

|----------------------------|-------------------------------------------|
|-13--BU--(15)--(13)---10~~~-|-11-10----10-------------------------------|
|----------------------------|-------12----12-11-12-11----11-------------|
|----------------------------|-------------------------13----13-12-13~~~-|
|----------------------------|-------------------------------------------|
|----------------------------|-------------------------------------------|

                                          Tr--------------------|
|---------------------------------------|-----------------------|
|---------------------------------------|-----------------------|
|---------------------------------------|-----------------------|
|-12-0-0-13-0-0-16-0-0-13-0-0-16-0-17-0-|-20---19---17---16-----|
|---------------------------------------|-----------------------|
|---------------------------------------|-----------------------|

  Tr------------------------------------------|
|---------------------|-----------------------|
|---------------------|-----------------------|
|---------------------|-----------------------|
|-20----------19------|-17----------13--------|
|---------------------|-----------------------|
|---------------------|-----------------------|

Solo Rhythm

  PM------------------------------------|
|------------------|--------------------|
|------------------|--------------------|
|------------------|--------------------|
|------------------|-4--5---------------|
|-0-0-0-0---00-0-0-|-------6-----5~~~---|
|-0-0-0-0---00-0-0-|--------------------|

  PM---------------------------------|
|------------------|-----------------|
|------------------|-----------------|
|------------------|-----------------|
|------------------|-4--5------------|
|-0-0-0-0---00-0-0-|-------6--3~~~---|
|-0-0-0-0---00-0-0-|-----------------|

  PM------------------------------------|
|------------------|--------------------|
|------------------|--------------------|
|------------------|--------------------|
|------------------|-4--5---------------|
|-0-0-0-0---00-0-0-|-------6-----5~~~---|
|-0-0-0-0---00-0-0-|--------------------|

  PM--|      PM--|
|------------------|--------------|
|------------------|--------------|
|-------7----------|--------------|
|-------5----------|-8------------|
|-5-5-5-5----5-8-8-|-8------------|
|-5-5-5-5----5-8-8-|-8------------|


Repeat Intro/Verse

Repeat only Chorus Rhythm x2

Interlude

Repeat Chorus with Lead

Outro

Lead
||---------|---------|---------|----------||
||---------|---------|---------|---------o||
||----10-9-|----10-9-|----10-9-|----10-9--||
||-12------|-10------|-12------|-12-------||
||---------|---------|---------|---------o||
||---------|---------|---------|----------||

Rhythm (Top)
Bass (Bottom)
              PM-----------------------------------------|
||-----------------------|-------------------------------|
||-----------------------|-------------------------------|
||--2--2--2--------------|-------------------------------|
||--0--0--0--------------|-------------------------------|
||--0--0--0--------------|-------------------------------|
||--0--0--0---0-0-0----0-|---0-0---0----0-0---0-0---0----|

              PM-----------------------------------------|
||-----------------------|-------------------------------|
||-----------------------|-------------------------------|
||--5--5--5--------------|-------------------------------|
||--3--3--3--------------|-------------------------------|
||--3--3--3--------------|-------------------------------|
||--3--3--3---3-3-3----3-|---3-3---3----3-3---3-3---3----|

              PM-----------------------------------------|
||-----------------------|-------------------------------|
||-----------------------|-------------------------------|
||-10-10-10--------------|-------------------------------|
||--8--8--8--------------|-------------------------------|
||--8--8--8--------------|-------------------------------|
||--8--8--8---8-8-8----8-|---8-8---8----8-8---8-8---8----|

              PM-------------------------------------------|
||-----------------------|---------------------------------|
||-----------------------|-----------------------------o---|
||--9--9--9--------------|---------------------------------|
||--7--7--7--------------|---------------------------------|
||--7--7--7--------------|-----------------------------o---|
||--7--7--7---7-7-7----7-|---7-7---7----7-7---7-7---7------|


Both guitars
  PM----------------------|
|-------------------------|
|-------------------------|
|-------------------------|
|-------------0~~~~~~~~---|
|-------------0~~~~~~~~---|
|-0-0-0---0-0-0~~~~~~~~---|

Song in Order:
Intro/Verse
Chorus
Interlude
Intro/Verse
Chorus x2
Pre-solo Verse
Solo 1
Pre-solo Verse
Solo 2
Chorus Build up (Rhythm guitar only) x2
Interlude
Chorus x2
Outro
Добавлено: 23.04.2012
Другие материалы по этой песне:
  • Аккорды и текст

Страница создана 23.04.2012
http://primanota.ru/trivium/in-waves-live-chords.htm
Привет, Гость.
Предлагаем пройти революционный курс по гитаре.
Подарок от PrimaNota.Ru, забирай!