PrimaNota.ru - самый крупный в мире бесплатный архив песенных текстов, аккордов, табулатур и нот


Tiny Moving Parts - Skinny Veins - таба, видео

Регистрация Запомнить меня
Войти через:  Facebook Google Twitter Vk Yandex Mail.ru

Tiny Moving Parts - Skinny Veins - таба, видео

Печатать
Просмотров: 74
-------------------------------------------------------------------------------
                             Skinny Veins - Tiny Moving Parts
-------------------------------------------------------------------------------
Tabbed by: BePet
E-mail: bpetty555@yahoo.com

Demonstration/Cover Video: https://www.youtube.com/watch?v=ITvUWWYN-pY

Sorry if the format of the tab being relative to the capo causes some confusion, but I just wanted to see
if in this way it would be easier to see.  If you are having trouble reading it, just add "3" to every
numbered-note (8=11) and that's where it would be on the fretboard if this was tabbed out non-relative
to the capo (open string would then be = 3 IN THAT CASE).
Otherwise, everything's pretty easy.  The intro and solo are pretty quick so just go over them slowly at
first then pick up the pace.  If there's a lot of confusion or difficulty playing this song, lemme know
through email or comment on the tab itself where you're having trouble and I'll put up another cover like
I did with "Fair Trade".
Anticipate more Tiny Moving Parts stuff soon!  Very fun band to cover stuff to so hopefully
you guys are enjoying playing their stuff as much as I am.

UPDATE (8/12/2015): I went back over the song and found that the intro and chorus can be played more easily when
a few things are changed.  I'll put these new ways of playing these parts at the very end of the tab, so that
you still have a reference to the original interpretation and can determine for yourself which one sounds
better or is easier to play.  For me, the additions I will make at the end of the tab both sound more exact
to the way it's played on the record, and are also easier to play.

By the way, do you all prefer the tabs to be relative to capo or non-relative?  For example, did you like
the way this tab was formatted, or the format of my tab for "Fair Trade" or "Dakota" more?  

Tuning: FAEGCe Capo 3rd, RELATIVE TO CAPO (0 = open string)

INTRO - 0:00                         0:05
e|--8--8--7------------------------|---------------------------------------------|
C|--0--0--0--4p2p0---------h7p0----|---------------7-7-5p4p0----------7/9p0------|
G|--0--0--0--------4h5h7t12--------|-5-5-4---5/7p0-------------7--5h7------------|
E|--0--0--0------------------------|---------------------------------------------|
A|--0--0--0------------------------|---------------------------------------------|
F|--0--0--0--------------------(x2)|---------------------------------------------|(ALL x2)

|--8--8--7----------------------------------------------------------------------|
|--0--0--0--4p2p0---------h7p0--------------------------------------------------|
|--0--0--0--------4h5h7t12------------------------------------------------------|
|--0--0--0----------------------------------------------------------------------|
|--0--0--0----------------------------------------------------------------------|
|--0--0--0----------------------------------------------------------------------|(x2)

BRIDGE - 0:23 "But don't be afraid..."
|---------------------------------------------------------------------------|
|---------------------------------------------------------------------------|
|---------------------------------------------------------------------------|
|----0-----0-----------------0-----0----------------------------------------|
|--3---------5----3--------3---------5----3----h3h5h7t10p3------------------|
|--------0-----------------------0------------------------------------------|

|---------------------------0-----------------------------------------------|
|------------------------0-----0--------------------------------------------|
|---------------------0-----------------------------------------------------|
|----0-----0--------------------------0-----0-------------------------------|
|--3---------5----3-----------------3---------5----3------------------------|
|--------0--------------------------------0---------------------------------|

INTRO/VERSE - 0:42
|--8--8--7------------------------|----------------------------------------------|
|--0--0--0--4p2p0---------h7p0----|---------------7-7-5p4p0----------7/9p0-------|
|--0--0--0--------4h5h7t12--------|-5-5-4---5/7p0-------------7--5h7-------------|
|--0--0--0------------------------|----------------------------------------------|
|--0--0--0------------------------|----------------------------------------------|
|--0--0--0--------------------(x2)|----------------------------------------------|(ALL x2)

|--8--8--7-----------------------------------------------------------------------|
|--0--0--0--4p2p0---------h7p0---------------------------------------------------|
|--0--0--0--------4h5h7t12-------------------------------------------------------|
|--0--0--0-----------------------------------------------------------------------|
|--0--0--0-----------------------------------------------------------------------|
|--0--0--0-----------------------------------------------------------------------|(x2)

CHORUS - 0:56 "I will pack my bags..."
|----------------------------------------------------------------------------|
|----------------------------------------------------------------------------|
|-7----9---12------4--4--4--4--9-----9--4--5-----4---------------------------|
|-x----x---x-------x--x--x--x--x-----x--x--x-----x---------------------------|
|-5----7---10(x8)--2--2--2--2--7(x8)-7--2--3(x8)-2(x16)----------------------|
|(7)--(9)-(11)----(0)(0)(0)(0)(9)---(9)(0)(4)---(0)--------------------------|

|----------------------------------------------------------------------------|
|----------------------------------------------------------------------------|
|-7--9--12-12-12-12-12-12-12-12/14-14---4--4--4--4--9-----9--4--5-----4------|
|-x--x--x--x--x--x--x--x--x--x--x--x----x--x--x--x--x-----x--x--x-----x------|
|-5--7--10-10-10-10-10-10-10-10/12-12---2--2--2--2--7(x8)-7--2--3(x8)-2(x16)-|
|(7)(9)(11)--------------------(13)----(0)(0)(0)(0)(9)---(9)(0)(4)---(0)-----|

BRIDGE 2 - 1:15 "I've soaked you deep inside my skin..."
|-----------------0------------------------0-----------------*12------------------|
|-----------------0------------------------0-----------------*12------------------|
|-----------------0------------------------0-----------------*12------------------|
|----0-----0------0-----------0-----0------0--------------------------------------|
|--3---------5----3--------3----------5----3----h3h5h7t10p3-----------------------|
|--------0-----------------------0------------------------------------------------|

|-----------------0----------0----------------------0-----------------------------|
|-----------------0-------0-----0-------------------0-----------------------------|
|-----------------0----0----------------------------0-----------------------------|
|----0-----0------0--------------------0-----0------0-----------------------------|
|--3---------5----3-----------------3----------5----3-----------------------------|
|--------0--------------------------------0---------------------------------------|

SOLO (x4) - 1:36           1:38                     1:40                        1:43
|---------------8/10p0-----------------------------------------------------------------------------------------|
|---2p0---4p0---------7p0----4p0---2p0---0h4h5p4p0-------------------*12-----*7-----0---0-----0h4h5h7p0-2/4p0--|
|------------------------------------------------------------------------*12-----------------------------------|
|--------------------------------------------------------------------------------------------------------------|
|-2-----3------------------7-----5-----3--------------3h5h7t10p3h5h7--------------4---4---4--------------------|
|-------------0-------------------------------------0---------------------------3-----------0------------------|

OUTRO CHORUS - 2:12 "I will pack my bags..."
|----------------------------------------------------------------------------|
|----------------------------------------------------------------------------|
|-7----9---12------4--4--4--4--9-----9--4--5-----4---------------------------|
|-x----x---x-------x--x--x--x--x-----x--x--x-----x---------------------------|
|-5----7---10(x8)--2--2--2--2--7(x8)-7--2--3(x8)-2(x16)----------------------|
|(7)--(9)-(11)----(0)(0)(0)(0)(9)---(9)(0)(4)---(0)--------------------------|

|----------------------------------------------------------------------------|
|----------------------------------------------------------------------------|
|-7--9--12-12-12-12-12-12-12-12/14-14---4--4--4--4--9-----9--4--5-----4------|
|-x--x--x--x--x--x--x--x--x--x--x--x----x--x--x--x--x-----x--x--x-----x------|
|-5--7--10-10-10-10-10-10-10-10/12-12---2--2--2--2--7(x8)-7--2--3(x8)-2(x16)-|
|(7)(9)(11)--------------------(13)----(0)(0)(0)(0)(9)---(9)(0)(4)---(0)-----|

END - 2:32
|------------------------------------------------------------|
|------------------------------------------------------------|
|--7--9--12--12--12--12--------------------------------------|
|------------------------------------------------------------|
|--5--7--10--10--10--10--------------------------------------|
|-(7)(9)(11)(11)(11)(11)-------------------------------------|

NOTE!!!!!
|------------|
|------------|
|---4--------|
|------------|
|---2--------|
|--(0)-------| can also be played (I think) as:

|------------|
|------------|
|---4--------|
|---0--------|
|---0--------|
|--(2)-------| up to you to think which one sounds better.

***UPDATE (8/12/2015) THIS COULD BE ANOTHER WAY OF PLAYING THESE CERTAIN PARTS***
INTRO - 0:00                         0:05
e|--8--8--7------------------------|---------------------------------------------|
C|--0--0--0--4p2p0---------h7p0----|---------------7-7-5p4p0----------7/9p0------|
G|--0--0--0--------h7p0h5t9--------|-5-5-4---5/7p0-------------7--5h7------------|
E|--0--0--0------------------------|---------------------------------------------|
A|--0--0--0------------------------|---------------------------------------------|
F|--0--0--0--------------------(x2)|---------------------------------------------|(ALL x2)

|--8--8--7----------------------------------------------------------------------|
|--0--0--0--4p2p0---------h7p0--------------------------------------------------|
|--0--0--0--------h7p0h5t9------------------------------------------------------|
|--0--0--0----------------------------------------------------------------------|
|--0--0--0----------------------------------------------------------------------|
|--0--0--0----------------------------------------------------------------------|(x2)


CHORUS - 0:56 "I will pack my bags..."
|---------------------------------------------------------------------------|
|-2----4---7----------------------------------------------------------------|
|-0----0---0------4--4--4--4--9-----9--4--5-----4---------------------------|
|-0----0---0------x--x--x--x--x-----x--x--x-----x---------------------------|
|-2----3---7(x8)--2--2--2--2--7(x8)-7--2--3(x8)-2(x16)----------------------|
|----------------(0)(0)(0)(0)(9)---(9)(0)(4)---(0)--------------------------|

|----------------------------------------------------------------------------|
|-2--4--7--7--7--7--7--7--7--7--9--9-----------------------------------------|
|-0--0--0--0--0--0--0--0--0--0-/0--0----4--4--4--4--9-----9--4--5-----4------|
|-0--0--0--0--0--0--0--0--0--0--0--0----x--x--x--x--x-----x--x--x-----x------|
|-2--3--7--7--7--7--7--7--7--7--7--7----2--2--2--2--7(x8)-7--2--3(x8)-2(x16)-|
|--------------------------------------(0)(0)(0)(0)(9)---(9)(0)(4)---(0)-----|

************************************

| /   slide up
| \   slide down
| h   hammer-on
| p   pull-off
| ~   vibrato
| *   natural harmonic
| x   Mute note
| t   Tap
| pb  Pre-bend
| br  Bend release
| pbr Pre-bend release
| brb Bend release bend

************************************
Добавлено: 30.11.2015
Вам также может быть интересно:
Другие материалы по этой песне:
  • Аккорды и текст

Страница создана 30.11.2015
http://primanota.ru/tiny-moving-parts/skinny-veins-chords.htm
Привет, Гость.
Предлагаем пройти революционный курс по гитаре.
Подарок от PrimaNota.Ru, забирай!