PrimaNota.ru - самый крупный в мире бесплатный архив песенных текстов, аккордов, табулатур и нот


Tiny Moving Parts - Always Focused - таба, бас-таба, видео

Регистрация Запомнить меня
Войти через:  Facebook Google Twitter Vk Yandex Mail.ru

Tiny Moving Parts - Always Focused - таба, бас-таба, видео

Печатать
Просмотров: 373
-------------------------------------------------------------------------------
                             Always Focused - Tiny Moving Parts
-------------------------------------------------------------------------------
Tabbed by:
E-mail: lance128686@gmail.com
Tabbed out by ear, by Lance Byrne
HUGE fan of Tiny Moving Parts

Tuning: DAEAC#E CAPO on the 4th fret.

e|---------------------------------------------------------------------------|
C#|-----------12p4h7p4-------------------------------------------------------|
A|---11p4h8p4--------------9/11\9h4------------------------------------------|
E|---------------------------------------------------------------------------|
A|--------------------------------------9\8h4--------------------------------|
D|4---------------------8-------------6--------------------------------------|




e|---------------------------------------------------------------------------|
C#|-----------12p4h7p4-------------------------------------------------------|
A|---11p4h8p4--------------9/11\9h4------------------------------------------|
E|---------------------------------------------------------------------------|
A|--------------------------------------9\8h4--------------------------------|
D|4---------------------8-------------6--------------------------------------|




e|---------------------------------------------------------------------------|
C#|-----------12p4h7p4-------------------------------------------------------|
A|---11p4h8p4--------------9/11\9h4------------------------------------------|
E|---------------------------------------------------------------------------|
A|--------------------------------------9\8h4--------------------------------|
D|4---------------------8-------------6--------------------------------------|




e|---------------------------------------------------------------------------|
C#|-----------12p4h7p4-------------------------------------------------------|
A|---11p4h8p4--------------9/11\9h4------------------------------------------|
E|---------------------------------------------------------------------------|
A|--------------------------------------9\8h4--------------------------------|
D|4---------------------8-------------6--------------------------------------|



************************************
| r   let ring
| /   slide up
| \   slide down
| h   hammer-on
| p   pull-off
| ~   vibrato
| +   harmonic
| x   Mute note
| b   Bend
| pb  Pre-bend
| br  Bend release
| pbr Pre-bend release
| brb Bend release bend

************************************
                                        
                                            
                                            
                                        
                                                                
                        
                        
                        
                                                    
/* Ultimate-Guitar - Tab Pages */
(function() {
	var opts = {
		artist: "Tiny Moving Parts",
		song: "Always Focused",
		genre: "",
		adunit_id: 39382312,
		div_id: "cf_async_" + Math.floor((Math.random() * 999999999)),
		hostname: "srv.tonefuse.com"
	};
	document.write('');var c=function(){cf.showAsyncAd(opts)};if(window.cf)c();else{cf_async=!0;var r=document.createElement("script"),s=document.getElementsByTagName("script")[0];r.async=!0;r.src="//"+opts.hostname+"/showads/showad.js";r.readyState?r.onreadystatechange=function(){if("loaded"==r.readyState||"complete"==r.readyState)r.onreadystatechange=null,c()}:r.onload=c;s.parentNode.insertBefore(r,s)};
})();


                        
                                                    
                                UG plus: remove banner
                                                                    
                                    
                                    
                                                            
                                                

                    

                
                
                
                    
                        comments
                    
                                            
                            We did not receive enough feedback on this tab! Please rate:
                        
                                        
                        print report bad tab
                    
                                            
                                                            1
                                                            2
                                                            3
                                                            4
                                                            5
                                                    
                                    
                
                                    
                
                    
                             
    
        2 comments total. 
            
    
                                
                
                
                    
                        
                            
                                
                                    
                                    
                                
                                                                    0
                                                            
                            reply
                            
                            
                        
                        jessebobb wrote on October 29 2014, 08:33 am  
                    
                    
                        e|---------------------------------------------------------------------------|
C#|------------------12p4----------------------------------------------------|
A|---11p4h8p4------------11p4--9/11\9h4--------------------------------------|
E|------------11p4h6---------------------------------------------------------|
A|----------------------------------------9\8h4------------------------------|
D|4--------------------------8----------6------------------------------------|


Добавлено: 06.08.2014
Другие материалы по этой песне:
  • Аккорды и текст

Страница создана 06.08.2014
http://primanota.ru/tiny-moving-parts/always-focused-chords.htm
Привет, Гость.
Предлагаем пройти революционный курс по гитаре.
Подарок от PrimaNota.Ru, забирай!