PrimaNota.ru - самый крупный в мире бесплатный архив песенных текстов, аккордов, табулатур и нот


Tiny Moving Parts - Dakota - таба, видео

Регистрация Запомнить меня
Войти через:  Facebook Google Twitter Vk Yandex Mail.ru

Tiny Moving Parts - Dakota - таба, видео

Печатать
Просмотров: 162
-------------------------------------------------------------------------------
                             DAKOTA - Tiny Moving Parts
-------------------------------------------------------------------------------
Tabbed by: BePet
E-mail: bpetty555@yahoo.com
  
NOTE: This is the tab for Dakota in its entirety from what I think is very accurate, if not completely.  This is
my first tab so please lemme know if there is anything I should change, whether it be formatting or the tab's
music denoting. Other than that, I don't think it's too hard of a song to learn because of the lack of Dylan's
use of finger-tapping in this particular song, especially compared to "Always Focused". With that in mind, enjoy
and I hope this is as accurate as I hope it is.

The notes in parentheses are mainly notes I took from TMP's Audiotree and Little Elephant sessions on YouTube,
so while they aren't crucial to being part of the song you hear on the album, they might be fun to mess around 
with. Also, the tab isn't specific to the Capo on the 4th fret. In other words, 4 = open string due to
the Capo.

And sorry for sounding like a wiseguy from my typing lol.

Tuning: D A E A C# e, Capo on 4th fret

  Intro
e|------4-------------------------14--13-----(13)-------(13)-----------------|
C#|-----9/12----------12--12------12--12----------(12)--------(12)-----------|
A|------8/11------------11--(11)--11--11-------(11)--(11)--(11)--------------|
E|--------------------------------4------------------------------------------|
A|--4-----------------------------4------------------------------------------|
D|--------------------------------4------------------------------------------|

  "I have never been..."
|------4--------------------------14--13-------------------------------------|
|------12/9----------9---9--------12--12-------------------------------------|
|------11/8------------8----------11--11-------------------------------------|
|---------------------------------4------------------------------------------|
|--4------------------------------4------------------------------------------|
|---------------------------------4------------------------------------------|


|------4--------------14--14------14--13-------------------------------------|
|------9/12-----------------------12--12-------------------------------------|
|------8/11-------------11--------11--11-------------------------------------|
|---------------------------------4------------------------------------------|
|--4-------------------------------------------------------------------------|
|----------------------------------------------------------------------------|

  "The Midwest has blessed me with great friends..."
|------4--------------14--14------14--13-------------------------------------|
|------9/12-----------------------12--12-------------------------------------|
|------8/11-------------11--------11--11-------------------------------------|
|---------------------------------4------------------------------------------|
|--4------------------------------4------------------------------------------|
|---------------------------------4------------------------------------------|
   
(Down-pick the first three strings then up-pick the last three strings on this part)
"But if these bones still hold me up..."
|--4--4--4--4--4--4--4--4--4--4--4--4--4--4--4--4--4----------------------------------------|
|--7--7--7--7--7--7--7--7--7--7--7--7--7--7--7--7--7~p4-------------------------------------|
|--4--4--4--4--4--4--4--4--4--4--4--4--4--4--4--4--4----------------------------------------|
|--4--4--4--4--4--4--4--4--4--4--4--4--4--4--4--4--4----------------------------------------|
|--4--4--4--4--4--4--4--4--4--4--4--4--4--4--4--4--4----------------------------------------|
|--8--8--8--8--6--6--6--6--6--6--6--6--6--6--6--6--4----------------------------------------| (x2)

"'Cause it's sad when time turns its back on us..."
|--4------4--------4-4-4-4-4-4-4-4-4-4-4-4-4-4-4-4------4-------4--------4------------------|
|--7------7--------7-7-7-9-9-7-7-7-7-4-4-5-5-7-7-7------7-------7--------7------------------|
|--4------4--------4-4-4-4-4-4-4-4-4-4-4-4-4-4-4-4------4-------4--------4------------------|
|--4-(x4)-4-(x12)--4-4-4-4-4-4-4-4-4-4-4-4-4-4-4-4------4-(x4)--4-(x12)--4------------------|
|--4------4--------4-4-4-4-4-4-4-4-4-4-4-4-4-4-4-4------4-------4--------4------------------|
|--8------6--------4-4-4-4-4-4-4-4-4-4-4-4-4-4-4-4------8-------6--------4------------------|
   
Call this section the LEAD UP                                THIS PART CHANGES the second time around
|-----9p4---------------4---4----------------9p4----------|----4---4------------------------|
|-----4----9p4-9p4------4---4---9------------4----9p4-9p4-|----4---4--7(t)9/12--------------|
|----------4---4--------4---4----8p4--------------4---4---|----4---4------------------------|
|--4-------4---4---------------------------4------4---4---|---------------------------------|
|--4-----4------------8---9---6------------4----4---------|--8---9--------------------------|
|-------(4)------------------------------------(4)--------|---------------------------------|
   
 NOTE THE BASS NOTE CHANGE
|-----9p4-------------9/11p4-----------------9p4--------------4---4---4---4-----------------|
|-----4----9p4-9p4----------7\9p4------------4----9p4-9p4-----4---4---4---4-----------------|
|----------4---4-----------------8p4--------------4---4-------4---4---4---4-----------------|
|----------4---4----------------------------------4---4-------------------------------------|
|--4-----4---------------------------------4----4-----------8---9---6---8-------------------|
|--4----(4)--------------------------------4---(4)------------------------------|(REPEAT LEAD UP)
   
CHANGE in sequence noted above     END LEAD UP with this
|----4---4----------------------|----8--9--8--11--11----15----------------------------------|
|----4---4----------------------|----4--4--4--4---4-----15----------------------------------|
|----4---4---11-9-8h9p8p4-------|----4--4--4--4---4-----4-----------------------------------|
|-------------------------------|----------------------(4)----------------------------------|
|--8---9------------------------|--4--------------------------------------------------------|
|-------------------------------|--4--------------------------------------------------------|

  BRIDGE
|--4----4----4--4--(4)----4-----4----4----4--4--(4)--------(4)-----------------|
|--7----7----7--7--(4)----4-----4----4----4--4--(4)--------(4)-----------------|
|--4----4----4--4--(4)----9/8---8----8----8--8--(4)---------4------------------|
|--4----4----4--4--(4)----4-----4----4----4--4--(4)---------8(b9)--------------|
|--4----4----4--4--(4)----4-----4----4----4--4--(4)----------------------------|
|--4----4----4--4--(4)----8/6---6----6----6--6--(6)----------------------------|(x2 w/o last chord)

  "All my white shirts have lost..."  GUITAR II at this part
|--4-------4------4------4-------|---------------------------------------------|
|--7-------4------4------4-------|---------------------------------------------|
|--4-------9------8------9-------|----------------6/8p4------------------------|
|--4-(x16)-4-(x8)-4-(x4)-4-(x4)--|--9-9-8h9-4-4-8-------8p4-8h9p4--------------|
|--4-------4------4------4-------|---------------------------------------------|
|--4-------8------6------6-------|---------------------------------------------|(x4)
                              
                              -"I like the way I dress..."
|--4-------4------4---------|----9------9------8------9------------------------|
|--7-------4------4---------|4h5/7------4------4------7------------------------|
|--4-------9------8------8p4|----4------4------4------4------------------------|
|--4-(x16)-4-(x8)-4-(x4)----|----4-(x8)-9-(x4)-8-(x4)-4-(x5)-------------------|
|--4-------4------4---------|----4------4------4------4------------------------|
|--4-------8------6---------|----4------8------6------4------------------------|

  Last Sequence
|--4--4444--4--------4--4444--4------------(4)---------------4-----------------|
|--4--4444--4--------4--4444--4------------(4)---------------7-----------------|
|--8--8888--6--------8--8888--6-------------4----------------4-----------------|
|--4--4444--4--------4--4444--4-------------8(b9)------------4-----------------|
|--4--4444--4--------4--4444--4------------------------------4-----------------|
|--8--8888--6--------8--8888--6------------------------------4-----------------|

************************************

| /   slide up
| \   slide down
| h   hammer-on
| p   pull-off
| ~   vibrato
| +   harmonic
| x   Mute note
| b   Bend
| pb  Pre-bend
| br  Bend release
| pbr Pre-bend release
| brb Bend release bend
| t   Tap (with picking hand)

************************************
Добавлено: 07.07.2015
Другие материалы по этой песне:

Страница создана 07.07.2015
http://primanota.ru/tiny-moving-parts/dakota-chords.htm
Привет, Гость.
Предлагаем пройти революционный курс по гитаре.
Подарок от PrimaNota.Ru, забирай!