PrimaNota.ru - самый крупный в мире бесплатный архив песенных текстов, аккордов, табулатур и нот


Tiny Moving Parts - John P - таба, видео

Регистрация Запомнить меня
Войти через:  Facebook Google Twitter Vk Yandex Mail.ru

Tiny Moving Parts - John P - таба, видео

Печатать
Просмотров: 57
-------------------------------------------------------------------------------
                             John P. - Tiny Moving Parts
-------------------------------------------------------------------------------
Tabbed by: Michael R

Tuning: DAEAC#E CAPO 2 (Tab not relative to capo)

'*'= Harmonic

This is mostly a complete tab. Not 100% at the end but everything else should be pretty much spot on! If you can
figure out any of the parts I couldn't, please comment them!

e |---------0--------------------------------------0--------------------------|
C#|-----------0--------------------------------------0------------------------|
A |-------0--------------------------------------0----------------------------|
E |-----7----------------6---6/7p0-------------6--------------12--------------|
A |---0----------------0---------------------0--------------0------11---------|
D |-6----------------0-----0---------------4--------------9------9----9-------|

e |---------0--------------------------------------0--------------------------|
C#|-----------0--------------------------------------0------------------------|
A |-------0--------------------------------------0----------------------------|
E |-----7----------------6---6/7p0-------------6--------------12--------------|
A |---0----------------0---------------------0--------------0------12/14p0----|
D |-6----------------0-----0---------------4--------------9------9------------|

e |---------0--------------------------------------0--------------0-----------|
C#|-----------0--------------------------------------0--------------0---------|
A |-------0--------------------------------------0--------------0-------------|
E |-----7----------------6---6/7p0-------------6--------------6---------------|
A |---0----------------0---------------------0--------------0-----------------|
D |-6----------------0-----0---------------4--------------4-------------------|

                                                                   "We're slowly losing touch..."

e |-------------------------0-------------0-------------0------------0--------|
C#|---------------------------0-------------0-------------0----------0--------|
A |-----------------------0-------------0-------------0--------------0--------|
E |-----6---6/7p0-------7-------------6-------------6----------------4--------|
A |---0---------------0-------------0-------------0------------------0--------|
D |-0-----0---------6-------------4-------------4--------------------0--------|

    "A little tighter..."

e |---------0-------------0---------------------------------------------------|
C#|-----------0-------------0-------------------------------------------------|
A |-------0-------------0-----------------------------------------------------|
E |-----6-------------7-------------7---7h9p7---7p6p0-0-----------------------|
A |---0-------------0-------------0-------------------------------------------|
D |-4-------------6-------------0-----0-------0-------------------------------|

e |---------0-------------0---------------------------------------------------|
C#|-----------0-------------0-------------------------------------------------|
A |-------0-------------0-----------------------------------------------------|
E |-----6-------------7-------------7---7h9p7---7p6p0---*9*-------------------|
A |---0-------------0-------------0---------------------*9*-------------------|
D |-4-------------6-------------0-----0-------0---------*9*-------------------|

e |---------0-------------0---------------------------------------------------|
C#|-----------0-------------0-------------------------------------------------|
A |-------0-------------0-----------------------------------------------------|
E |-----6-------------7-------------7---7h9p7---7p6p0-0-----------------------|
A |---0-------------0-------------0-------------------------------------------|
D |-4-------------6-------------0-----0-------0-------------------------------|

e |---------0-------------0---------------------------------------------------|
C#|-----------0-------------0-------------------------------------------------|
A |-------0-------------0-----------------------------------------------------|
E |-----6-------------7-------------------------------------------------------|
A |---0-------------0---------------------------------------------------------|
D |-4-------------6-----------------------------------------------------------|

     "We speak our own language..."    (Figure out strumming pattern here)

e |--0---0---0---0----7-7-7---------------------------------------------------|
C#|--0---0---0---0------------------------------------------------------------|
A |--4---6---7---9----9-9-9---------------------------------------------------|
E |--0---0---0---0------------------------------------------------------------|
A |--0---0---0---0------------------------------------------------------------|
D |--0---0---0---0------------------------------------------------------------|

    "When I was 17..."

e |---------0-------------0---------------------------------------------------|
C#|-----------0-------------0-------------------------------------------------|
A |-------0-------------0-----------------------------------------------------|
E |-----6-------------7-------------7---7h9p7---7p6p0-0-----------------------|
A |---0-------------0-------------0-------------------------------------------|
D |-4-------------6-------------0-----0-------0-------------------------------|

e |---------0-------------0---------------------------------------------------|
C#|-----------0-------------0-------------------------------------------------|
A |-------0-------------0-----------------------------------------------------|
E |-----6-------------7-------------7---7h9p7---7p6p0---*9*-------------------|
A |---0-------------0-------------0---------------------*9*-------------------|
D |-4-------------6-------------0-----0-------0---------*9*-------------------|

e |---------0-------------0---------------------------------------------------|
C#|-----------0-------------0-------------------------------------------------|
A |-------0-------------0-----------------------------------------------------|
E |-----6-------------7-------------7---7h9p7---7p6p0-0-----------------------|
A |---0-------------0-------------0-------------------------------------------|
D |-4-------------6-------------0-----0-------0-------------------------------|

e |---------0-------------0---------------------------------------------------|
C#|-----------0-------------0-------------------------------------------------|
A |-------0-------------0-----------------------------------------------------|
E |-----6-------------7-------------------------------------------------------|
A |---0-------------0---------------------------------------------------------|
D |-4-------------6-----------------------------------------------------------|

  "We see our own vision..."   (A little different than last time)

e |--0---0-0--0---0----7-7-7---------------------------------------------------|
C#|--0---0-0--0---0------------------------------------------------------------|
A |--4---6-0--7---9----9-9-9---------------------------------------------------|
E |--0---0-6--0---0------------------------------------------------------------|
A |--0---0-0--0---0------------------------------------------------------------|
D |--0---0-0--0---0------------------------------------------------------------|


   "Truth is"

e |---------------------------------------------------------------------------|
C#|---------------------------------------------------------------------------|
A |-00---00---00---00---------------*14*--------------------------------------|
E |-66---77---66---77---------------*14*--------------------------------------|
A |-00---00---00---00---------------*14*--------------------------------------|
D |-44---66---44---66---------------*14*--------------------------------------|

e |----------------------------------------------0-----0----------------------|
C#|----------------------------------------------0-----0----------------------|
A |-00---00---00-00---00-00----------------------9-----6b-p0------------------|
E |-66---77---14-14---11-11----------------------7-----0----------------------|
A |-00---00---00-00---00-00----------------------0-----0----------------------|
D |-44---66---16-16---13-13-----(4)-(6)-(4)------0-----0----------------------|

e |----------------------------------------------0-----0----------------------|
C#|----------------------------------------------0-----0----------------------|
A |-00---00---00-00---00-00----------------------9-----6b-p0------------------|
E |-66---77---14-14---11-11----------------------7-----0----------------------|
A |-00---00---00-00---00-00----------------------0-----0----------------------|
D |-44---66---16-16---13-13-----(4)-(6)-(4)------0-----0----------------------|

e |---------------------------------------------------------------------------|
C#|---------------------------------------------------------------------------|
A |-00---00---00-00---00-00---------------------------------------------------|
E |-66---77---14-14---11-11---------------------------------------------------|
A |-00---00---00-00---00-00---------------------------------------------------|
D |-44---66---16-16---13-13-----(4)-(6)---------------------------------------|

e |---0---0---0---0---0---0---0---0---0---------------------------------------|
C#|---0---0---0---0---0---0---0---0---0---------------------------------------|
A |---9---6---4---6---7---6---4---6---0----------6-6-6---4-4-4----------------|
E |---0---0---0---0---0---0---0---0---0----------0-0-0---0-0-0----------------|
A |---0---0---0---0---0---0---0---0---0----------0-0-0---0-0-0----------------|
D |---0---0---0---0---0---0---0---0---0----------6-6-6---4-4-4----------------|

e |---0---0---0---0---0---0---0---0---0---------------------------------------|
C#|---0---0---0---0---0---0---0---0---0---------------------------------------|
A |---9---6---4---6---7---6---4---6---0----------6-6-6---4-4-4----------------|
E |---0---0---0---0---0---0---0---0---0----------0-0-0---0-0-0----------------|
A |---0---0---0---0---0---0---0---0---0----------0-0-0---0-0-0----------------|
D |---0---0---0---0---0---0---0---0---0----------6-6-6---4-4-4----------------|

  "I need to finalize a plan"

e |---------------------------------------------------------------------------|
C#|---------------------------------------------------------------------------|
A |-4---4---4---4---4---4---4---4-------6---6---6---6--------6-6/4-4----------|
E |---0---0---0---0---0---0---0---0-------0---0---0---0------0-0/0-0----------|
A |----------------------------------------------------------0-0/0-0----------|
D |----------------------------------------------------------6-6/4-4----------|

e |---0-----------0----------------------------------------------------------|
C#|---0-------------0---------------------------------------------------------|
A |---9---------------6b---6-6/4-4---------------------------------------------|
E |---0--------------------0-0/0-0---------------------------------------------|
A |---0--------------------0-0/0-0---------------------------------------------|
D |---0--------------------6-6/4-4----------------------------------------------|

(Figure out strumming pattern)

e |-0---0---0---0---0---0----------0---0---0---0------------------------------|
C#|-0---0---0---0---0---0----------0---0---0---0------------------------------|
A |-9---6---7---0---4---6----------9---6---7---0------------------------------|
E |-0---0---0---0---0---0----------0---0---0---0-------*14*-------------------|
A |-9---6---7---0---4---6----------9---6---7---0-------*14*-------------------|
D |-0---0---0---0---0---0----------0---0---0---0-------*14*-------------------|

e |-0---0------0---0---0---0------------0-0-0-0-0-0-0-0-----------------------|
C#|-0---0------0---0---0---0------------0-0-0-0-0-0-0-0-----------------------|
A |-9---6------7---0---4---6------------9-9-9-9-9-9-9-9-----------------------|
E |-0---0------0---0---0---0------------0-0-0-0-0-0-0-0-----------------------|
A |-9---6------7---0---4---6------------9-9-9-9-9-9-9-9-----------------------|
D |-0---0------0---0---0---0------------0-0-0-0-0-0-0-0-----------------------|


Interlude Part    (Figure out strumming pattern)

e |---------------------------------------------------------------------------|
C#|---------------------------------------------------------------------------|
A |-0---0---0----0----0----0---0-------------------0--------------------------|
E |-6---7---14---11---9----7---6-------------------12-------------------------|
A |-0---0---0----0----0----0---0-------------------0----( Build Up on)--------|
D |-4---6---16---13---11---6---4-------------------9--------------------------|


This is the part in the tab where things can get iffy.

e |---------------------------------------------------------------------------|
C#|---------------------------------------------------------------------------|   I can't figure out the tapping
A |-9-9-9-9------6-----9-9-9-9------------tapping-----------------------------|     in this part. All I can tell
E |-0-0-0-0------0-----0-0-0-0------------------------------------------------|      you is that it is on the 
A |-9-9-9-9------6-----9-9-9-9------------------------------------------------|       higher strings and is
D |---------------------------------------------------------------------------|        around the 12th fret. 
                                                                                        Just noodle around here.
e |---------------------------------------------------------------------------|
C#|---------------------------------------------------------------------------|
A |-0-0-0---0--0---------------0-0-0------------------------------------------|
E |-4-4-4---12-11----6-6-6-----6-6-6p0----------------------------------------|
A |-0-0-0---0--0-----0-0-0-----0-0-0------------------------------------------|
D |-0-0-0---0--0-----4-4-4-----0-0-0------------------------------------------|


e |---------------------------------------------------------------------------|
C#|---------------------------------------------------------------------------|  
A |-9-9-9-9------6-----9-9-9-9------------tapping-----------------------------|     
E |-0-0-0-0------0-----0-0-0-0------------------------------------------------|      
A |-9-9-9-9------6-----9-9-9-9------------------------------------------------|       
D |---------------------------------------------------------------------------| 

e |----------------------------------------0-0-0-0----0-0-0-0-----------------|
C#|----------------------------------------0-0-0-0----0-0-0-0-----------------|
A |-0-0-0---0--0---------------0-0-0-------9-9-9-9----4-4-4-4-----------------|
E |-4-4-4---12-14----6-6-6-----6-6-6p0-----0-0-0-0----0-0-0-0-----------------|
A |-0-0-0---0--0-----0-0-0-----0-0-0-------9-9-9-9----0-0-0-0-----------------|
D |-0-0-0---0--0-----4-4-4-----0-0-0-------0-0-0-0----4-4-4-4-----------------|

    "Don't let me row"

e |-0-0-0-0---0-0-0-0----0-0-0-0---0-0-0-----0-0-0-0---0-0-0-0---0-0-0-0------|
C#|-0-0-0-0---0-0-0-0----0-0-0-0---0-0-0-----0-0-0-0---0-0-0-0---0-0-0-0------|
A |-9-9-9-9---4-4-4-4----9-9-9-9---0-0-0-----9-9-9-9---4-4-4-4---9-9-9-9------|
E |-0-0-0-0---0-0-0-0----0-0-0-0---6-6-6p0---0-0-0-0---0-0-0-0---0-0-0-0------|
A |-9-9-9-9---4-4-4-4----9-9-9-9---0-0-0-----9-9-9-9---4-4-4-4---9-9-9-9------|
D |-0-0-0-0---0-0-0-0----0-0-0-0---0-0-0-----0-0-0-0---0-0-0-0---0-0-0-0------|

e |-------0-------------0-----------------------------------------------------|
C#|---------0-------------0---------------------------------------------------|
A |---0-------0-----0-------0-------------------------------------------------|
E |-4---4---------6---6-------------------------------------------------------|
A |---------------------------------------------------------------------------|
D |---------------------------------------------------------------------------|

e |-0-0-0-0---0-0-0-0----0-0-0-0---0-0-0-----0-0-0-0---0-0-0-0---0-0-0-0------|
C#|-0-0-0-0---0-0-0-0----0-0-0-0---0-0-0-----0-0-0-0---0-0-0-0---0-0-0-0------|
A |-9-9-9-9---4-4-4-4----9-9-9-9---0-0-0-----9-9-9-9---4-4-4-4---9-9-9-9------|
E |-0-0-0-0---0-0-0-0----0-0-0-0---6-6-6p0---0-0-0-0---0-0-0-0---0-0-0-0------|
A |-9-9-9-9---4-4-4-4----9-9-9-9---0-0-0-----9-9-9-9---4-4-4-4---9-9-9-9------|
D |-0-0-0-0---0-0-0-0----0-0-0-0---0-0-0-----0-0-0-0---0-0-0-0---0-0-0-0------|

e |-------0-------------0-------------0-------------0-------------------------|
C#|---------0-------------0-------------0-------------0-----------------------|
A |---0-------0-----0-------0-----0-------0-----0-------0---------------------|
E |-4---4---------6---6---------4---4---------6---6---------------------------|
A |---------------------------------------------------------------------------|
D |---------------------------------------------------------------------------|

    "One day, we'll crack a coca cola"
   
e |-------0-------------------------------0--0-----0-0-0----------------------|
C#|---------0-----------------------------10-10----9-9-9----------------------|
A |---0-------0---------------------------0--0-----0-0-0----------------------|
E |-4---4------------0------0-------------------------------------------------|
A |--------------------0------0-----------------------------------------------|
D |----------------6------4----------0----------------------------------------|

e |--------------------------0--0-----0-0-0-----------------------------------|
C#|--------------------------10-10----9-9-9-----------------------------------|
A |--------------------------0--0-----0-0-0-----------------------------------|
E |---0-------0---------------------------------------------------------------|
A |-----0-------0-------------------------------------------------------------|
D |-6-------4-----------0-----------------------------------------------------|

e |--------------------------0--0-----0-0-0-----------------------------------|
C#|--------------------------10-10----9-9-9-----------------------------------|
A |--------------------------0--0-----0-0-0-----------------------------------|
E |---0-------0---------------------------------------------------------------|
A |-----0-------0-------------------------------------------------------------|
D |-6-------4-----------0-----------------------------------------------------|

e |---------------------------------------0------------------------------------|
C#|---------------------------------------5------------------------------------|
A |---------------------------------------0------------------------------------|
E |---0-------0---------------------------0------------------------------------|
A |-----0-------0-------------------------0------------------------------------|
D |-6-------4-----------------------------0------------------------------------|

************************************
*     harmonic
| /   slide up
| \   slide down
| h   hammer-on
| p   pull-off
| ~   vibrato
| +   harmonic
| x   Mute note
| b   Bend
| pb  Pre-bend
| br  Bend release
| pbr Pre-bend release
| brb Bend release bend

************************************
Добавлено: 18.05.2016
Другие материалы по этой песне:
  • Аккорды и текст

Страница создана 18.05.2016
http://primanota.ru/tiny-moving-parts/john-p-chords.htm
Привет, Гость.
Предлагаем пройти революционный курс по гитаре.
Подарок от PrimaNota.Ru, забирай!