PrimaNota.ru - самый крупный в мире бесплатный архив песенных текстов, аккордов, табулатур и нот


The Used - Iddy Biddy - таба, бас-таба, видео

Регистрация Запомнить меня
Войти через:  Facebook Google Twitter Vk Yandex Mail.ru

The Used - Iddy Biddy - таба, бас-таба, видео

Печатать
Просмотров: 130
"Iddy Biddy" [intro]
The Ocean Of The Sky (2013)
The Used 

Tabbed by cherry_cola
(to be updated?)

Guitar 1

e|------------------------------------------------|   x2
B|------------------------------------------------|
G|------------------------------------------4-----|
D|------2--2----------------------2--2------4-----|
A|-4--4------2--2-----------4--4-------2----2-----|
E|-----------------4-4-3-3------------------------|


Guitar 2 (second time)

e|-0-0h2-0-0h2-0-0h2-3-2--|
B|------------------------|
G|------------------------|
D|------------------------|
A|------------------------|
E|------------------------|
Добавлено: 23.11.2013
Другие материалы по этой песне:
  • Аккорды и текст

Страница создана 23.11.2013
http://primanota.ru/the-used/iddy-biddy-chords.htm
Привет, Гость.
Предлагаем пройти революционный курс по гитаре.
Подарок от PrimaNota.Ru, забирай!