PrimaNota.ru - самый крупный в мире бесплатный архив песенных текстов, аккордов, табулатур и нот


The Used - Blood On My Hands - текст песни, таба, бас-таба, видео

Регистрация Запомнить меня
Войти через:  Facebook Google Twitter Vk Yandex Mail.ru

The Used - Blood On My Hands - текст песни, таба, бас-таба, видео

Печатать
Просмотров: 202
Уроки эстрадного вокала в Санкт-Петербурге
The Used - Blood On My Hands
Tune : D

Intro
e|-------------------------------------------------------|
b|-------------------------------------------------------|
g|-------------------------------------------------------|
D|-----------------------------------------------7-8-----| 1x
A|----8-8-10-10-8-8-10-10-8-8-10-10-8-8-10-18--------8---|
D|-----------many times----------------------------------|

Solo
e|------------------------------------------------|
b|--------------------------11-10----11-10--------|
g|--10-10-12-12-10-10-12-12-------10-------11-----|
D|------------------------------------------------| 1x
A|------------------------------------------------|
D|------------------------------------------------|

e|------------------------------------------------|
b|--------------------------13-11----------11-----|
g|--10-10-12-12-10-10-12-12-------12-12-12--------|
D|------------------------------------------------| 1x
A|------------------------------------------------|
D|------------------------------------------------|

e|------------------------------------------------|
b|--------------------------11-10----11-10--------|
g|--10-10-12-12-10-10-12-12-------10-------11-----|
D|------------------------------------------------| 1x
A|------------------------------------------------|
D|------------------------------------------------|

e|------------------------------------------------|
b|------------------------------------------------|
g|--10-10-12-12-10-10-12-12-9-9-10-7-7-9----------|
D|------------------------------------------0~----| 1x
A|------------------------------------------0~----|
D|------------------------------------------0~----|

verse

e|------------------------------------------------|
b|------------------------------------------------|
g|------------------------------------------------| 4x
D|------------------------------------------------|
A|------------------------------------------------|
D|--0-0-0-0-0--3-3-3-3-3-3---8-8-8-8---5-5-5-5----|


Chorus

e|--------------------------------------------------|
b|--------------------------------------------------|
g|--------------------------------------------------|
D|--0-0-0-0-0--3-3-3-3-3--8-8----0-0-0-0-0--3-3-3-3-| 1x
A|--0-0-0-0-0--3-3-3-3-3--8-8----0-0-0-0-0--3-3-3-3-|
D|--0-0-0-0-0--3-3-3-3-3--8-8----0-0-0-0-0--3-3-3-3-|

e|--------------------------------------------------|
b|--------------------------------------------------|
g|--------------------------------------------------|
D|--0-0-0-0-0--3-3-3-3-3--8-8---3-3-3--2-2-2--1-1-1-| 1x
A|--0-0-0-0-0--3-3-3-3-3--8-8---3-3-3--2-2-2--1-1-1-|
D|--0-0-0-0-0--3-3-3-3-3--8-8---3-3-3--2-2-2--1-1-1-|

repeat verse
repeat chorus

bridge
e|-------------------------------------|
b|-------------------------------------|
g|-------------------------------------|
D|-0~-------------------1-1------------| 3x
A|-0~-crawl pick on chords  1-1--------|
D|-0~-------------------1-1------------|

cont. bridge
e|----------------------------------|
b|----------------------------------|
g|----------------------------------|
D|-0-0-0---1----- many times--------|
A|-0-0-0---1------------------------|
D|-0-0-0---1------------------------|

repeat chorus
repeat cont. bridge 3x
Добавлено: 23.09.2013
Другие материалы по этой песне:
  • Аккорды и текст

Страница создана 30.04.2012
http://primanota.ru/the-used/blood-on-my-hands-chords.htm
Привет, Гость.
Предлагаем пройти революционный курс по гитаре.
Подарок от PrimaNota.Ru, забирай!