PrimaNota.ru - самый крупный в мире бесплатный архив песенных текстов, аккордов, табулатур и нот


The Used - Disaster - бас-таба, видео

Регистрация Запомнить меня
Войти через:  Facebook Google Twitter Vk Yandex Mail.ru

The Used - Disaster - бас-таба, видео

Печатать
Просмотров: 156
Уроки эстрадного вокала в Санкт-Петербурге
Disaster - The Used

Verse
G|------------------------------------------------------|x4
D|------3---------------3---------------3---------------|x4
A|--5-5---0---0-3-4-5-5---0---0-3-4-5-5---0---0-3-4-5---|x4
D|------------------------------------------------------|x4

Chorus
G|--------------------------------|x2
D|--------------------------------|x2
A|---------33333333---------------|x2
D|-33333333--------000/12-000/12--|x2

G|--------------------------3-2-------3-2-----|
D|------------------------3-----3---------3---|
A|--------------------1-1---------1-1-------3-|
D|-33333333-22222222--------------------------|

G|--------------------------------|
D|--------------------------------|
A|---------33333333---------------|
D|-33333333--------000-12-000-12--|

Verse x4

Chorus x1

Bridge
G|-----7-10-7------7-9-10-9-----------7-10-10-----|x4
D|-0-7---------0-7----------10----0-7---------10--|x4
A|------------------------------------------------|x4
D|------------------------------------------------|x4

Chorus x1

Ending
G|----------|
D|----------|
A|----------|
D|-3-3-2~---|
Добавлено: 12.07.2013
Другие материалы по этой песне:
  • Аккорды и текст

Страница создана 12.07.2013
http://primanota.ru/the-used/disaster-chords.htm
Привет, Гость.
Предлагаем пройти революционный курс по гитаре.
Подарок от PrimaNota.Ru, забирай!