PrimaNota.ru - самый крупный в мире бесплатный архив песенных текстов, аккордов, табулатур и нот


The Faceless - Autotheist Movement I Create - таба, видео

Регистрация Запомнить меня
Войти через:  Facebook Google Twitter Vk Yandex Mail.ru

The Faceless - Autotheist Movement I Create - таба, видео

Печатать
Просмотров: 228
                            The Faceless
                   Autotheist Movement I : Create
                            Autotheism
                                \m/


-----------------------------------------------------------------------------|
-----------------------------------------------------------------------------|
----------0------------------0----------------3-----------------2------------|
------3-----3------------0-------0----------0---0-------------0---0----------|
----5---5-----5------------8---8----------1-------1---------3-------3--------|
--5-------------5--5-5/7------------7-7\1------------1-1/3-------------3-3/5-|

-----------------------------------------------------------------------|
-----------------------------------------------------------------------|
------0------------------0-----------------3-----------------2---------|
----3---3------------0-------0-----------0---0-------------0---0-------|
--5-------5------------8---8-----------1-------1---------3-------3-----|
------------5--5-5/7------------7-7\1-------------1-1/3-------------3--|


----------------------------------------------------|
--------------------------------------3-------------|
----------5---------------------------0-------------|
------5-----5-------------------0h1p0---0h1---------|
----9---9-----9-------------------------------------|
--0-------------0--00-0-00-0--1-------------1-11-1--|
                   ..   ..                    ..
repeat once

-------------------------------------------------------------------|
-------------------------------------------------------------------|
----------------------------------7-----7-----7-----7-----7---7-8--|
--7-----7-----7-----7-----7-----7---7-5---7-5---7-5---7-5---5------|
----6-5---6-5---6-5---6-5---6-5------------------------------------|
-------------------------------------------------------------------|
play twice

& that is the song.
Hail \m/
Добавлено: 14.07.2013
Другие материалы по этой песне:

Страница создана 12.07.2013
http://primanota.ru/the-faceless/autotheist-movement-i-create-chords.htm
Привет, Гость.
Предлагаем пройти революционный курс по гитаре.
Подарок от PrimaNota.Ru, забирай!