PrimaNota.ru - самый крупный в мире бесплатный архив песенных текстов, аккордов, табулатур и нот


The Faceless - Ten Billion Years - таба, видео

Регистрация Запомнить меня
Войти через:  Facebook Google Twitter Vk Yandex Mail.ru

The Faceless - Ten Billion Years - таба, видео

Печатать
Просмотров: 161
Here's the beginning of the song.
Drop C tuning.

He bends most of these notes, just listen to the song and you'll see what I mean.
d|--------------------------|-------------------------------------|
A|-----6--------------------|-------------------------------------|
F|--------6-----------------|---------------0----------0----------|
C|-----------7--------------|---2---------------------------------|
G|--------------7--7--4-----|------4------------------------------|
C|--0--------------------2--|0--------6--1----0-1-2-3----3-2-1-0--|

d|--------------------------|-------------------------------------|
A|-----6--------------------|-------------------------------------|
F|--------6-----------------|---------------0----------0----------|
C|-----------7--------------|---2---------------------------------|
G|------------/12-7-8-4-----|------4------------------------------|
C|--0--------------------2--|0--------6--1----0-1-2-3----3-2-1-0--|

d|--------------------------|-------------------------------------|
A|-----6--------------------|-------------------------------------|
F|--------6-----------------|---------------0----------0----------|
C|-----------7-11-6-7-8-----|---2---------------------------------|
G|--------------------------|------4------------------------------|
C|--0--------------------2--|0--------6--1----0-1-2-3----3-2-1-0--|

I'll add more to this when I have time.
Добавлено: 30.09.2013
Другие материалы по этой песне:

Страница создана 03.09.2013
http://primanota.ru/the-faceless/ten-billion-years-chords.htm
Привет, Гость.
Предлагаем пройти революционный курс по гитаре.
Подарок от PrimaNota.Ru, забирай!