PrimaNota.ru - самый крупный в мире бесплатный архив песенных текстов, аккордов, табулатур и нот


The Faceless - Deconsecrate - таба, видео

Регистрация Запомнить меня
Войти через:  Facebook Google Twitter Vk Yandex Mail.ru

The Faceless - Deconsecrate - таба, видео

Печатать
Просмотров: 188
                             The Faceless
                             Deconsecrate
                               (intro)
                                 \m/

http://www.youtube.com/watch?v=AAAtxt_LWqw&list=UUblR4O6kPd84Hxifow4Uegg&index=1&feature=plcp

------------------------------------------|
------8-/-10-10b-10br-8-10----------------|
--5/7----------------------7\5--5b-5p3----|
---------------------------------------4--|
------------------------------------------|
------------------------------------------|

--13b13b------------------|
---------13b-13br-11------|
---------------------11~--|
--------------------------|
--------------------------|
--------------------------|

-----------------|----------------------|
--------------7--|------------------10--|
--------5/7-8----|----------8/10-11-----|
--5-7-8----------|--8-10-11-------------|
-----------------|----------------------|
-----------------|----------------------|

then starts off with this:

--------|
--------|
--------|
--------|
--------|
--5454--|

this part plays before and during the solo. im working on the solo right now so 
hopefully I get it done.

(3:41)
-----------------|
-----------------|
-----------------|
------0-----0~---|
----4-----4------|
--4-----5-----1--| x 6

----------------|
----------------|
----------------|
------0-----0---|
----4-----4-----|
--4-----5-------|

-------------------------------------------------------------|
-----------------------------------10---------------6--------|
--------0~--------3--------------9----9-----------5---5------|
------0---------7---7---------12--------12------8-------8----|
----1---------5-------5--------------------------------------|
--1--------/4-----------4--/8--------------8--4-----------4--|
Добавлено: 21.09.2013
Другие материалы по этой песне:
  • Аккорды и текст

Страница создана 31.08.2013
http://primanota.ru/the-faceless/deconsecrate-chords.htm
Привет, Гость.
Предлагаем пройти революционный курс по гитаре.
Подарок от PrimaNota.Ru, забирай!