PrimaNota.ru - самый крупный в мире бесплатный архив песенных текстов, аккордов, табулатур и нот


The Faceless - In Solitude - таба, видео

Регистрация Запомнить меня
Войти через:  Facebook Google Twitter Vk Yandex Mail.ru

The Faceless - In Solitude - таба, видео

Печатать
Просмотров: 209
                                          The Faceless
                                      In Solitude (intro)
                                           Autotheism
                                               \m/


------------------------0-|--------------------------------|
----------0-1p0---------1-|--------------------------------|
------2---------2-------2-|----------2------------1--------|
----2---2---------2---3-3-|--------6---6--------1---1------|
--0-----------------0-----|------4-------4----4-------4----|
--------------------------|--2/4------------3-----------3--|

-------------------------------------------------|
--------3-----------3-----------3-------------9--|
------6---6-------6---6-------5---5--------11----|
----4-------4---4-------4---4-------4---10-------|
--2-----------0----------------------------------|
--------------------------6-----------0----------|

---------------------------------3---------3---|
--------5----------5-----------5---------5-----|
------8----8-----8----8------7---------7-------|
----6----------6-----------5---------5---------|
--4----------0-----------3---------3-----------|
-----------------------------------------------|

---------------------------------3---------3--|
--------5~----------5~---------5---------5----|
------8----8-----8-----8-----7---------7------|
----6----------6-----------5---------5--------|
--4----------0-----------3---------3----------|
----------------------------------------------|

------------------------0-|--------------------------------|
----------0-1p0---------1-|--------------------------------|
------2---------2-------2-|----------2------------1--------|
----2---2---------2---3-3-|--------6---6--------1---1------|
--0-----------------0-----|------4-------4----4-------4----|
--------------------------|--2/4------------3-----------3--|

-------------------------------------------------|
--------3-----------3-----------3-------------9--|
------6---6-------6---6-------5---5--------11----|
----4-------4---4-------4---4-------4---10-------|
--2-----------0----------------------------------|
--------------------------6-----------0----------|

---------------------------------3---------3--|
--------5-----------5----------5---------5----|
------8----8-----8-----8-----7---------7------|
----6----------6-----------5---------5--------|
--4----------0-----------3---------3----------|
----------------------------------------------|

---------------------------------3---------3--|
--------5-----------5----------5---------5----|
------8----8-----8-----8-----7---------7------|
----6----------6-----------5---------5--------|
--4----------0-----------3---------3----------|
----------------------------------------------|

-------------------------------------------------|
--------6------------------------6------------7--|
------9---9----------2---------9---9----------6--|
----7-------7------6---6-----7-------7------6-7--|
--5--------------4-------4--5-------------4------|
---------------4------------------------4--------|

------------------------------------------------|
--------6-------------------1-----------1-------|
------9---9--------5------4---4-------4---4-----|
----7-------7----3------2-------2---2-------2---|
--5------------1------0-----------0-------------|
------------------------------------------------|

----------------------------|
----------------------------|
---------8-----7-----7-8-5--|
------10--------------------|
----6-----------------------|
--6--------666---666--------|

-------------------------------------------------|
--------6------------------------6------------7--|
------9---9----------2---------9---9----------6--|
----7-------7------6---6-----7-------7------6-7--|
--5--------------4-------4--5-------------4------|
---------------4------------------------4--------|

------------------------------------------------|
--------6-------------------1-----------1-------|
------9---9--------5------4---4-------4---4-----|
----7-------7----3------2-------2---2-------2---|
--5------------1------0-----------0-------------|
------------------------------------------------|

----------------------------|
----------------------------|
---------8-----7-----7-8-5--|
------10--------------------|
----6-----------------------|
--6--------666---666--------|
Добавлено: 24.10.2013
Другие материалы по этой песне:

Страница создана 26.08.2013
http://primanota.ru/the-faceless/in-solitude-chords.htm
Привет, Гость.
Предлагаем пройти революционный курс по гитаре.
Подарок от PrimaNota.Ru, забирай!