PrimaNota.ru - самый крупный в мире бесплатный архив песенных текстов, аккордов, табулатур и нот


Sungha Jung - Time After Time - таба, видео

Регистрация Запомнить меня
Войти через:  Facebook Google Twitter Vk Yandex Mail.ru

Sungha Jung - Time After Time - таба, видео

Печатать
Просмотров: 257

Title: Time After Time

Artist: Sungha Jung

Arranged by: Ulli Boegershausen

Tabbed by: Ryan R. Gonzales

Location: Rosario, Batangas - Philippines

Band: http://www.youtube.com/watch?v=dY0_cK4tskI

Tuning: e B G D A E (Standard Tuning)


Intro:


e ||------------------|----------------|------------------|-----------------|
B ||--1~--------------|-3~-------------|-0~---------------|-1~--------------|
G ||--2~--------------|-0~-------------|-0~---------------|-2~--------------|
D ||------------------|----------------|------------------|-----------------|
A ||------------------|----------------|------------------|-----------------|
E ||--1-1-1-1--1-1-0--|-3-3-3-3--3-3-1-|-0-0-0-0--1-h-3-0-|-1-1-1-1--1-1-0--|



e ||------------------|----------------|------------------|-------------0-----|
B ||--1~--------------|-3~-------------|-0~---------------|-1~-------3-----3--|
G ||--2~--------------|-0~-------------|-0~---------------|-2~----------------|
D ||------------------|----------------|------------------|-------------------|
A ||------------------|----------------|------------------|-------------------|
E ||--1-1-1-1--1-1-0--|-3-3-3-3--3-3-1-|-0-0-0-0--1-h-3-0-|-1-1-1-1-----3-----|



Verse:

         T                  T                  T                     T
e ||-----------0-------|------------------|------------------|----0-----0--0--------|
B ||--3--x--1-(0)------|-3--x--1--1-------|-3--x--1--1-------|-3-----x--1-(1)-------|
G ||--2--x--0----------|-2--x--0-(0)------|-2--x--0----------|-2-----x--0-----------|
D ||--3--x--2--------0-|-3--x--2--------0-|-3--x--2--------0-|-3-----x-----------0--|
A ||--3----------------|-3----------------|-3----------------|-3--------------------|
E ||-----x--3-----3----|----x--3-----3----|----x--3-----3----|-------x--3-----3-----|


         T                  T                  T                     T
e ||-----------0-------|------------------|------------------|----0-----0-----------|
B ||--3--x--1-(0)------|-3--x--1--1-------|-3--x--1--1-------|-3-----x--1--1--------|
G ||--2--x--0----------|-2--x--0----------|-2--x--0----------|-2-----x--0--------0--|
D ||--3--x--2--------0-|-3--x--2--------0-|-3--x--2--------0-|-3-----x--------------|
A ||--3----------------|-3----------------|-3----------------|-3--------------------|
E ||-----x--3-----3----|----x--3-----3----|----x--3-----3----|-------x--3-----3-----|



Refrain:

         T      #  #      T      #  #  #
e ||-------|---------|------|-------------------|
B ||--1--x-|-3-------|-0--x-|-1-----------1-----|
G ||--2--x-|-0-------|-0--x-|-2-----------2-----|
D ||-------|---------|------|-------------------|
A ||-------|---------|------|----------------0--|
E ||--1--x-|-3--3--1-|-0--x-|-1--1--0--1--------|


            T   ^  |--------------------------------|
e ||----------|----------------------------------------|
B ||--1--0----|----------------------------------------|
G ||--0-----x-|-0-----------------------------------0--|
D ||--------x-|-2------------------------0-h-2-h-3-----|
A ||--------x-|-2-------------0-h-2-h-3----------------|
E ||--3-------|----0-h-1-h-3---------------------------|


         T                       T      #  #  #
e ||-------|----------------|------|------------------|-------------|
B ||--1--x-|-3--------------|-0--x-|-1-----------1----|-1--0--------|
G ||--2--x-|-0--------------|-0--x-|-2-----------2----|-0-----------|
D ||-------|----------------|------|------------------|----------0--|
A ||-------|----------------|------|----------------0-|-------------|
E ||--1--x-|-3--3-3-3-3-1-1-|-0--x-|-1--1--0--1-------|-3-----0-----|



Verse:

         T                  T                  T                     T
e ||-----------0-------|------------------|------------------|----0-----0-----------|
B ||--3--x--1-(0)------|-3--x--1--1-------|-3--x--1--1-------|-3-----x--1--1--------|
G ||--2--x--0----------|-2--x--0-(0)------|-2--x--0-(0)------|-2-----x--0-----------|
D ||--3--x--2--------0-|-3--x--2--------0-|-3--x--2--------0-|-3-----x-----------0--|
A ||--3----------------|-3----------------|-3----------------|-3--------------------|
E ||-----x--3-----3----|----x--3-----3----|----x--3-----3----|-------x--3-----3-----|


         T                  T                  T                     T
e ||-----------0-------|------------------|------------------|----0-----0-----------|
B ||--3--x--1-(0)------|-3--x--1--1-------|-3--x--1--1-------|-3-----x--1--1--------|
G ||--2--x--0----------|-2--x--0-(0)------|-2--x--0----------|-2-----x--0--------0--|
D ||--3--x--2--------0-|-3--x--2--------0-|-3--x--2--------0-|-3-----x--------------|
A ||--3----------------|-3----------------|-3----------------|-3--------------------|
E ||-----x--3-----3----|----x--3-----3----|----x--3-----3----|-------x--3-----3-----|



Refrain:

         T                       T      #  #  #
e ||-------|----------------|------|-------------------|
B ||--1--x-|-3--------------|-0--x-|-1-----------1-----|
G ||--2--x-|-0--------------|-0--x-|-2-----------2-----|
D ||-------|----------------|------|-------------------|
A ||-------|----------------|------|----------------0--|
E ||--1--x-|-3--3-3-3-3-1-1-|-0--x-|-1--1--0--1--------|


            T   ^     T  |-------------|
e ||----------|--------------------------|----------|
B ||--1--0----|--------------------------|----1-----|
G ||--0-----x-|-0-----x------------------|----2-----|
D ||--------x-|-2-----x---------0-h-2--0-|-------0--|
A ||--------x-|-2-----x--0-h-2-----------|----------|
E ||--3-------|----0~--------------------|-1--------|


            T   ^        T
e ||----------|----------------|
B ||--1--0----|----------------|
G ||--0-----x-|-0-----2--x--2--|
D ||--------x-|-2--------x-----|
A ||--------x-|-2--------x-----|
E ||--3-------|----0-----------|



Chorus:

                                                     |----------------|
e ||--------3--3--------3--3-|-------3--3-|----5-----0--------------------|
B ||--------3--3--------3--3-|-------3--3-|----5-----0--------------------|
G ||-----0-----------0-------|----0-------|----------0-h-2-p-0------------|
D ||-------------------------|------------|-------2-------------2---------|
A ||-------------------------|------------|-0----------------------3------|
E ||--1-----------3----------|-0----------|---------------------------1~--|


                  ^
e ||--0------|-0-----0--|-------------|
B ||--1------|----3--1--|-------------|
G ||--2----0-|----0-----|-------0-----|
D ||-----0---|----------|----2--------|
A ||---------|----------|-3--------2--|
E ||---------|-3--------|-------------|


                                                     |----------------|
e ||--------3--3--------3--3-|-------3--3-|----5-----0--------------------|
B ||--------3--3--------3--3-|-------3--3-|----5-----0--------------------|
G ||-----0-----------0-------|----0-------|----------0-h-2-p-0------------|
D ||-------------------------|------------|-------2-------------2---------|
A ||--0----------------------|------------|-0----------------------3------|
E ||--------------3----------|-0----------|---------------------------1~--|


                  ^
e ||--0------|-0-----0--|-------------|
B ||--1------|----3--1--|-------------|
G ||--2----0-|----0-----|-------0-----|
D ||-----0---|----------|----2--------|
A ||---------|----------|-3--------2--|
E ||---------|-3--------|-------------|


                                                     |----------------|
e ||--------3--3--------3--3-|-------3--3-|----5-----0--------------------|
B ||--------3--3--------3--3-|-------3--3-|----5-----0--------------------|
G ||-----0-----------0-------|----0-------|----------0-h-2-p-0------------|
D ||-------------------------|------------|-------2-------------2---------|
A ||--0----------------------|------------|-0----------------------3------|
E ||--------------3----------|-0----------|---------------------------1~--|


                  ^
e ||--0------|-0-----0--|-------------|
B ||--1------|----3--1--|-------------|
G ||--2----0-|----0-----|-------0-----|
D ||-----0---|----------|----2--------|
A ||---------|----------|-3--------2--|
E ||---------|-3--------|-------------|


                                                             |-------|
e ||--------3--3--------3--3-|----0-|-8-----7-p-5--8-----5-|---------------|
B ||--------3--3--------3--3-|----0-|-5-----5------5-----5-|---------------|
G ||-----0-----------0-------|----0-|-5--------------------|---------------|
D ||-------------------------|------|----------------------|---------------|
A ||--0----------------------|------|----0------------0----|---------------|
E ||--------------3----------|-0----|----------------------|-7-s-8-s-1--1--|


                  ^                   H
e ||---------|----------|-------------------|
B ||--1------|-1--0--1--|-------------------|
G ||--2----0-|----0-----|-------0--------0--|
D ||-----0---|----3-----|----2--------2~----|
A ||---------|----------|-3--------3--------|
E ||---------|-3--------|-------------------|



Interlude:


e ||------------------8~-----7-|---------------------|
B ||---------------------------|----------10~-----8--|
G ||---------------5-----------|-------7-------------|
D ||-[2]s[7]----7---------0----|----9----------------|
A ||--3-s-8--8-----------------|-7-------------------|
E ||---------------------------|---------------7-----|



e ||------------------------|---------------------|
B ||-----------10--8--------|---------------0-----|
G ||--------7---------10--9-|-7-h-9---------0-----|
D ||-----9-----------(0)----|--------10-----------|
A ||--8---------------------|-8-------------------|
E ||------------------------|------------8-----7--|



e ||-----------8~-----7-|---------------------|
B ||--------------------|----------10~-----8--|
G ||--------5-----------|-------7-------------|
D ||-----7---------0----|----9----------------|
A ||--8-----------------|-7-------------------|
E ||--------------------|---------------7-----|



e ||------------------------|------------------0-----|
B ||-----------10--8--------|---------------------1--|
G ||--------7---------10--9-|-7-h-9---------7--------|
D ||-----9-----------(0)----|--------10--------------|
A ||--8---------------------|-8----------------------|
E ||------------------------|------------8-----------|



Verse:

         T                  T                  T                     T
e ||-----------0-------|------------------|------------------|----0-----0-----------|
B ||--3--x--1-(0)------|-3--x--1--1-------|-3--x--1--1-------|-3-----x--1--1--------|
G ||--2--x--0----------|-2--x--0-(0)------|-2--x--0-(0)------|-2-----x--0-----------|
D ||--3--x--2--------0-|-3--x--2--------0-|-3--x--2--------0-|-3-----x-----------0--|
A ||--3----------------|-3----------------|-3----------------|-3--------------------|
E ||-----x--3-----3----|----x--3-----3----|----x--3-----3----|-------x--3-----3-----|


         T                  T                  T                     T
e ||-----------0-------|------------------|------------------|----0-----0-----------|
B ||--3--x--1-(0)------|-3--x--1--1-------|-3--x--1--1-------|-3-----x--1--1--------|
G ||--2--x--0----------|-2--x--0-(0)------|-2--x--0----------|-2-----x--0--------0--|
D ||--3--x--2--------0-|-3--x--2--------0-|-3--x--2--------0-|-3-----x--------------|
A ||--3----------------|-3----------------|-3----------------|-3--------------------|
E ||-----x--3-----3----|----x--3-----3----|----x--3-----3----|-------x--3-----3-----|



Refrain:

         T                       T      #  #  #
e ||-------|----------------|------|-------------------|
B ||--1--x-|-3--------------|-0--x-|-1-----------1-----|
G ||--2--x-|-0--------------|-0--x-|-2-----------2-----|
D ||-------|----------------|------|-------------------|
A ||-------|----------------|------|----------------0--|
E ||--1--x-|-3--3-3-3-3-1-1-|-0--x-|-1--1--0--1--------|


            T   ^     T  |-------------|
e ||----------|--------------------------|----------|
B ||--1--0----|--------------------------|----1-----|
G ||--0-----x-|-0-----x------------------|----2-----|
D ||--------x-|-2-----x---------0-h-2--0-|-------0--|
A ||--------x-|-2-----x--0-h-2-----------|----------|
E ||--3-------|----0~--------------------|-1--------|


            T   ^        T
e ||----------|----------------|
B ||--1--0----|----------------|
G ||--0-----x-|-0-----2--x--2--|
D ||--------x-|-2--------x-----|
A ||--------x-|-2--------x-----|
E ||--3-------|----0-----------|



Chorus:

                                                     |----------------|
e ||--------3--3--------3--3-|-------3--3-|----5-----0--------------------|
B ||--------3--3--------3--3-|-------3--3-|----5-----0--------------------|
G ||-----0-----------0-------|----0-------|----------0-h-2-p-0------------|
D ||-------------------------|------------|-------2-------------2---------|
A ||-------------------------|------------|-0----------------------3------|
E ||--1-----------3----------|-0----------|---------------------------1~--|


                  ^
e ||--0------|-0-----0--|-------------|
B ||--1------|----3--1--|-------------|
G ||--2----0-|----0-----|-------0-----|
D ||-----0---|----------|----2--------|
A ||---------|----------|-3--------2--|
E ||---------|-3--------|-------------|


                                                     |----------------|
e ||--------3--3--------3--3-|-------3--3-|----5-----0--------------------|
B ||--------3--3--------3--3-|-------3--3-|----5-----0--------------------|
G ||-----0-----------0-------|----0-------|----------0-h-2-p-0------------|
D ||-------------------------|------------|-------2-------------2---------|
A ||--0----------------------|------------|-0----------------------3------|
E ||--------------3----------|-0----------|---------------------------1~--|


                  ^
e ||--0------|-0-----0--|----------------------------|
B ||--1------|----3--1--|----------------------------|
G ||--2----0-|----0-----|-------0--------0----0---0--|
D ||-----0---|----------|----2--------2--------------|
A ||---------|----------|-3--------3--------2---0----|
E ||---------|-3--------|----------------------------|



Bridge:


e ||--------3--------3----------|-------3--------3-----------|
B ||--------3--------3----------|-------1--------1-----------|
G ||-----0--------0-------0---0-|---------------------0---0--|
D ||----------------------------|----2--------2--------------|
A ||----------------------------|-0--------0--------0---0----|
E ||--3--------3--------3---0---|----------------------------|



e ||--------3--------3----------|-------3--------3-----------|
B ||--------1--------1----------|-------1--------1-----------|
G ||-----2--------2-------------|---------------------0---0--|
D ||----------------------0---0-|----2--------2--------------|
A ||----------------------------|-3--------3--------2---0----|
E ||--1--------3--------3---0---|----------------------------|



e ||--------3--------3----------|-------3--------3-----------|
B ||--------3--------3----------|-------1--------1-----------|
G ||-----0--------0-------0---0-|---------------------0---0--|
D ||----------------------------|----2--------2--------------|
A ||----------------------------|-0--------0--------0---0----|
E ||--3--------3--------3---0---|----------------------------|


                                                    T
e ||--------3--------3----------|-------3--------3--------|
B ||--------1--------1----------|-------1--------1--x-----|
G ||-----2--------2-------------|-------------------x-----|
D ||----------------------0---0-|----2--------2-----------|
A ||----------------------------|-3--------3--------x--0--|
E ||--1--------3--------3---0---|-------------------------|



Refrain:

         T                       T      #  #  #
e ||-------|----------------|------|-------------------|
B ||--1--x-|-3--------------|-0--x-|-1-----------1-----|
G ||--2--x-|-0--------------|-0--x-|-2-----------2-----|
D ||-------|----------------|------|-------------------|
A ||-------|----------------|------|----------------0--|
E ||--1--x-|-3--3-3-3-3-1-1-|-0--x-|-1--1--0--1--------|


            T   ^     T  |-------------|
e ||----------|--------------------------|----------|
B ||--1--0----|--------------------------|----1-----|
G ||--0-----x-|-0-----x------------------|----2-----|
D ||--------x-|-2-----x---------0-h-2--0-|-------0--|
A ||--------x-|-2-----x--0-h-2-----------|----------|
E ||--3-------|----0~--------------------|-1--------|


            T   ^        T
e ||----------|----------------|
B ||--1--0----|----------------|
G ||--0-----x-|-0-----2--x--2--|
D ||--------x-|-2--------x-----|
A ||--------x-|-2--------x-----|
E ||--3-------|----0-----------|



Chorus:

                                                     |----------------|
e ||--------3--3--------3--3-|-------3--3-|----5-----0--------------------|
B ||--------3--3--------3--3-|-------3--3-|----5-----0--------------------|
G ||-----0-----------0-------|----0-------|----------0-h-2-p-0------------|
D ||-------------------------|------------|-------2-------------2---------|
A ||-------------------------|------------|-0----------------------3------|
E ||--1-----------3----------|-0----------|---------------------------1~--|


                  ^
e ||--0------|-0-----0--|-------------|
B ||--1------|----3--1--|-------------|
G ||--2----0-|----0-----|-------0-----|
D ||-----0---|----------|----2--------|
A ||---------|----------|-3--------2--|
E ||---------|-3--------|-------------|


                                                     |----------------|
e ||--------3--3--------3--3-|-------3--3-|----5-----0--------------------|
B ||--------3--3--------3--3-|-------3--3-|----5-----0--------------------|
G ||-----0-----------0-------|----0-------|----------0-h-2-p-0------------|
D ||-------------------------|------------|-------2-------------2---------|
A ||--0----------------------|------------|-0----------------------3------|
E ||--------------3----------|-0----------|---------------------------1~--|


                  ^
e ||--0------|-0-----0--|-------------|
B ||--1------|----3--1--|-------------|
G ||--2----0-|----0-----|-------0-----|
D ||-----0---|----------|----2--------|
A ||---------|----------|-3--------2--|
E ||---------|-3--------|-------------|


                                                     |----------------|
e ||--------3--3--------3--3-|-------3--3-|----5-----0--------------------|
B ||--------3--3--------3--3-|-------3--3-|----5-----0--------------------|
G ||-----0-----------0-------|----0-------|----------0-h-2-p-0------------|
D ||-------------------------|------------|-------2-------------2---------|
A ||--0----------------------|------------|-0----------------------3------|
E ||--------------3----------|-0----------|---------------------------1~--|


                  ^
e ||--0------|-0-----0--|-------------|
B ||--1------|----3--1--|-------------|
G ||--2----0-|----0-----|-------0-----|
D ||-----0---|----------|----2--------|
A ||---------|----------|-3--------2--|
E ||---------|-3--------|-------------|


                                                             |-------|
e ||--------3--3--------3--3-|----0-|-8-----7-p-5--8-----5-|---------------|
B ||--------3--3--------3--3-|----0-|-5-----5------5-----5-|---------------|
G ||-----0-----------0-------|----0-|-5--------------------|---------------|
D ||-------------------------|------|----------------------|---------------|
A ||--0----------------------|------|----0------------0----|---------------|
E ||--------------3----------|-0----|----------------------|-7-s-8-s-1--1--|



Outro:

                  ^
e ||---------|----------|----------------------------|
B ||--1------|-1--0--1--|----------------------------|
G ||--2----0-|----0-----|-------0--------0-----0-----|
D ||-----0---|----3-----|----2--------2--------------|
A ||---------|----------|-3--------3--------3--------|
E ||---------|-3--------|-------------------------1--|


                  ^
e ||---------|----------|----------------------------|
B ||--1------|-1--0--1--|-------------------1--------|
G ||--2----0-|----0-----|-------0--------0-----------|
D ||-----0---|----3-----|----2-----------------------|
A ||---------|----------|-3--------2--0--------------|
E ||---------|-3--------|----------------------3--1--|


                  ^
e ||---------|----------|----------------------------|
B ||--1------|-1--0--1--|-------------------1--------|
G ||--2----0-|----0-----|-------0--------0-----------|
D ||-----0---|----3-----|----2-----------------------|
A ||---------|----------|-3--------2--0--------------|
E ||---------|-3--------|----------------------3--1--|


                  ^
e ||---------|------|--------(3)~--|
B ||--1------|-1--0-|-1~~----------|
G ||--2----0-|----0-|-0~~----------|
D ||-----0---|----3-|-2~~----------|
A ||---------|------|-3~~----------|
E ||---------|-3----|--------------|




Tablature Legend
----------------

h   - hammer on
s   - slide
p   - pull off
x   - dead string
T   - tap the strings
H   - hold out note
~   - let the note ring / vibrato
^   - pluck the strings smoothly from top to bottom
#   - palm mute
(n) - play the note softly
[n] - note played without plucking the string




echo "Hello World!";

for - Charlene Mae -

Play until your fingers bleed!


Добавлено: 23.03.2012
Другие материалы по этой песне:

Страница создана 23.03.2012
http://primanota.ru/sungha-jung/time-after-time-chords.htm
Привет, Гость.
Предлагаем пройти революционный курс по гитаре.
Подарок от PrimaNota.Ru, забирай!