PrimaNota.ru - самый крупный в мире бесплатный архив песенных текстов, аккордов, табулатур и нот


Sungha Jung - You Belong With Me - таба, видео

Регистрация Запомнить меня
Войти через:  Facebook Google Twitter Vk Yandex Mail.ru

Sungha Jung - You Belong With Me - таба, видео

Печатать
Просмотров: 109
You Belong with me 
Arranged by: Sungha Jung
Tabbed by: Karl Riggy R. Peñas 
Naga City, Philippines 
Standard Tuning E-B-G-D-A-E


E|------------------------------------------------------|
B|--2s3--(3)--0--3--3--(0)--1--0--(1)--0--1--0--(0)-----|
G|-------(0)-----------(0)--------(0)-----------(2)--0--|
D|------------------------------------------------------|
A|--------x-------------x----------x-------------x------|
E|--2s3---x------3------x---3------x------3------x------|


E|-----------------------------------------------------|
B|--2s3--(3)--0--3--3--(0)--1--0--(1)--0--1--0-(0)-----|
G|-------(0)-----------(0)--------(0)----------(2)--0--|
D|-----------------------------------------------------|
A|--------x-------------x----------x------------x------|
E|--2s3---x------3------x---3------x------3-----x------|


E|-----------------------------------------------------------------------------------|
B|--2s3--(3)--0---(0)--0-3-(3)-0---0-(0)--------(3)--3-0---(0)----3p0-(0)-----0-(0)--|
G|-------(0)----2-(2)------(2)---2---(2)--2---2-(2)------2-(2)--2-----(2)-2-----(2)-0|
D|------------------------------------------0----------0----------0---------0--------|
A|--------x--------x--------x---------x----------x----------x----------x---------x---|
E|--2s3---x-----3--x-----3--x----3----x----------x----------x----------x---------x---|


E|---------------------------------------------------------------------------------|
B|------(1)--1-0---(0)--0-0-(0)--0-----(0)------(0)----0-(0)--0-----(0)--0-----(0)-|
G|------(2)------2-(0)------(0)------0-(2)--0-2-(2)--0---(0)------0-(0)------0-(0)-|
D|----2----------------------------------------------------------------------------|
A|--0----x-----0----x--0-----x-----0----x-----3--x-----3--x-----3----x-----3----x--|
E|-------x----------x--------x----------x--------x--------x----------x----------x--|


E|-----------------------------------------------------------------------------------|
B|--0-3--(3)--0---(0)--0-3-(3)-0---0-(0)--------(3)--3-0---(0)----3p0-(0)-----0-(0)--|
G|-------(0)----2-(2)------(0)---2---(2)--2---2-(2)------2-(2)--2-----(2)-2-----(2)-0|
D|------------------------------------------0----------0----------0---------0--------|
A|--------x--------x--------x---------x----------x----------x----------x---------x---|
E|----3---x-----3--x-----3--x----3----x----------x----------x----------x---------x---|


E|----------------------------------------------------------------------------------|
B|------(1)--1-0---(0)--0-0-(0)--0-----(0)------(0)----0-(0)--0-----(0)--0-----(0)--|
G|------(2)------2-(0)------(0)------0-(2)--0-2-(2)--0---(0)------0-(0)------0-(0)--|
D|----2-----------------------------------------------------------------------------|
A|--0----x-----0----x--0-----x-----0----x-----3--x-----3--x-----3----x-----3----x---|
E|-------x----------x--------x----------x--------x--------x----------x----------x---|


E|----0-(3)---3s5-(3)---0-(3)---3h5-(3)-----(3)---3-5-(3)--5-(5)-5s7-5-(3)--|
B|--0-1-(1)-------(0)-----(0)-------(0)---3-(3)-------(3)----(3)-------(3)--|
G|-----------------------------------------------------------(2)------------|
D|---------------------------------------------------------0---------0------|
A|----0--x--0------x--0-3--x--3------x--0----x---------x------x---------x---|
E|-------x---------x-------x---------x----3--x--3------x------x---------x---|


E|----0-3-(3)-0-3s5-(5)-0---3-(3)-3--0-(3)-0--|
B|----1---(1)-------(0)-------(0)------(0)----|
G|--------------------------------------------|
D|--0-----------------------------------------|
A|----0----x----0----x----3----x--3-----x-----|
E|---------x---------x---------x--------x-----|


E|----7-------------7---------------------|
B|------10-10--8-10-----10-8-10-10--8-10--|
G|----------------------------------------|
D|--0------0----------0----0--------------|
A|----------------------------------------|
E|----------------------------------------|


E|--7-----(7)--7-------(7)--7-------(7)-----------(7)----|
B|--------(10)---------(10)------10-(10)----10----(8)----|
G|-------------------------------------------------------|
D|-------------------------------------------------------|
A|--10-10--x-----10-----x-----10-----x---10----10--x--10-|
E|---------x------------x------------x-------------x-----|


E|--7-----(7)--7------(7)--7------(7)----------(7)----|
B|--------(10)--------(10)-----10-(10)---10----(8)----|
G|----------------------------------------------------|
D|--0-0----------0-----------0---------0----0------0--|
A|---------x-----------x-----------x------------x-----|
E|---------x-----------x-----------x------------x-----|


E|--8-(8)--------------------------0-8-(8)-----------------------------------|
B|--8-(8)--12------------8-8-8---------(8)--12----------------------------0--|
G|----------------9------9----9s7-------------------9------------------------|
D|-----------x------x--------------------------x----10--x----10-10-10s9-9----|
A|--0--x-----x--0---x--0----------------x------x--------x--------------------|
E|-----x-----x------x--------------0-8--x------x--8-----x--8-----------------|


E|---(0)----------(0)------(0)----------------|
B|---(3)--0--3-3--(0)--1-0-(1)--0-1-0-(0)-----|
G|-------------------------------------2p0----|
D|--------------------------------------------|
A|----x------------x--------x----------x------|
E|--3-x------3-----x---3----x-----3----x------|


E|---------------------------------------------------------------------------------|
B|--3--(3)--0---(0)--0-3-(3)-0---0-(0)--------(3)--3-0---(0)----3p0-(0)-----0-(0)--|
G|-----(0)----2-(2)------(0)---2---(2)--2---2-(2)------2-(2)--2-----(2)-2-----(2)-0|
D|----------------------------------------0----------0----------0---------0--------|
A|------x--------x--------x---------x----------x----------x----------x---------x---|
E|--3---x-----3--x-----3--x----3----x----------x----------x----------x---------x---|


E|----(0)------(0)------(0)----0-3-(3)--3s5---(5)--3-3-5-(3)----8-----------------|
B|----(0)--1-1-(1)--1-3-(3)--3-----(1)--------(3)--------(3)--------8-10-10p8-----|
G|----(2)--2-2------2-------------------------------------------------------------|
D|--------------x-----------------------------------------------0-0------0--------|
A|--0--x---0----x---0----x-----0----x-------3--x-----3----x--0--------------------|
E|-----x--------x--------x----------x----------x----------x-----------------------|


E|--3-3--(0)-------(0)-----(0)--------(0)--------------------------------------------|
B|-------(3)--3-0--(0)---3-(3)--0---0-(0)--------(3)--3-0---(0)----3p0-(0)---0-(0)---|
G|------------------2p0-----------2--------2---2-(2)------2-(2)--2-----(2)-2---(2)-0-|
D|-------------------------------------------0----------0----------0--------0--------|
A|--------x---------x-------x----------x----------x----------x----------x-------x----|
E|----3-3-x-----3-3-x----3--x-----3----x----------x----------x----------x-------x----|


E|----(0)--------(0)----0-0-3s7--5-(5)--------(0)------(0)----0-0-3s7---5-(5)--------|
B|----(0)--0---1-(1)--3----(0)-----(0)--0---0-(0)--1-3-(3)--3----(0)------(3)--0-----|
G|----(2)--0---0-----------------------------------0---------------------------------|
D|-----------------------------------------------------------------------------------|
A|--0--x-----0----x-----0---x----0--x-----3----x---3----x-----3---x---0-3--x---------|
E|-----x----------x---------x-------x----------x--------x---------x--------x---------|


E|----0-(3)---3s5-(3)---0-(3)---3h5-(3)-----(3)---3-5-(3)--5-(5)-5s7-5-(3)---------|
B|--0-1-(1)-------(0)-----(0)-------(0)---3-(3)-------(3)----(3)-------(3)---------|
G|-----------------------------------------------------------(2)-------------------|
D|---------------------------------------------------------0---------0-------------|
A|----0--x--0------x--0-3--x--3------x--0----x---------x------x---------x----------|
E|-------x---------x-------x---------x----3--x--3------x------x---------x----------|


E|----0-3-(3)-0-3s5-(5)-0---3-(3)-3--0-(3)-0--|
B|----1---(1)-------(0)-------(0)------(0)----|
G|--------------------------------------------|
D|--0-----------------------------------------|
A|----0----x----0----x----3----x--3-----x-----|
E|---------x---------x---------x--------x-----|


E|----7-------------7---------------------|
B|------10-10--8-10-----10-8-10-10--8-10--|
G|----------------------------------------|
D|--0------0----------0----0--------------|
A|----------------------------------------|
E|----------------------------------------|


E|--7-----(7)--7-------(7)--7-------(7)-----------(7)----|
B|--------(10)---------(10)------10-(10)----10----(8)----|
G|-------------------------------------------------------|
D|-------------------------------------------------------|
A|--10-10--x-----10-----x-----10-----x---10----10--x--10-|
E|---------x------------x------------x-------------x-----|


E|--7-----(7)--7------(7)--7------(7)----------(7)----|
B|--------(10)--------(10)-----10-(10)---10----(8)----|
G|----------------------------------------------------|
D|--0-0----------0-----------0---------0----0------0--|
A|---------x-----------x-----------x------------x-----|
E|---------x-----------x-----------x------------x-----|


E|--8-(8)--------------------------0-8-(8)--------------------------------------|
B|--8-(8)--12------------8-8-8---------(8)--12----------------------------------|
G|----------------9------9----9s7-------------------9---------------------------|
D|-----x-----x------x-------------------x------x----10--x--12-x------12-x-------|
A|--0--x-----x--0---x--0----------------x------x--------x-----x---------x--0----|
E|-----x-----x------x--------------0-8--x------x--8-----x-----x--8-8----x-------|


E|--7-----(7)--7-------(7)--7-------(7)-----------(7)----|
B|--------(10)---------(10)------10-(10)----10----(8)----|
G|-------------------------------------------------------|
D|-------------------------------------------------------|
A|--10-10--x-----10-----x-----10-----x---10----10--x--10-|
E|---------x------------x------------x-------------x-----|


E|--7-----(7)--7------(7)--7------(7)----------(7)----|
B|--------(10)--------(10)-----10-(10)---10----(8)----|
G|----------------------------------------------------|
D|--0-0----------0-----------0---------0----0------0--|
A|---------x-----------x-----------x------------x-----|
E|---------x-----------x-----------x------------x-----|


E|--8-(8)--------------------------0-8-(8)-----------------------------------|
B|--8-(8)--12------------8-8-8---------(8)--12----------------------------0--|
G|----------------9------9----9s7-------------------9------------------------|
D|-----------x------x--------------------------x----10--x----10-10-10s9-9----|
A|--0--x-----x--0---x--0----------------x------x--------x--------------------|
E|-----x-----x------x--------------0-8--x------x--8-----x--8-----------------|


E|----------------7-----------------|
B|----8-(8)-10----8-----------------|
G|----7-(7)-7-----------------------|
D|-------x----x-----x--9-10-9-7-----|
A|--10---x----x-10--x-----------10--|
E|-------x----x-----x---------------|


E|----------------7-----------------|
B|----8-(8)-10----8-----------------|
G|----8-(8)-8-----------------------|
D|--0----x----x-0---x--9-10-9-7-----|
A|-------x----x-----x-----------10--|
E|-------x----x-----x---------------|


E|----8--(8)--8----8--(8)--10----10--(10)--10---10--(10)-|
B|----8--(8)--8----8--(8)--8-----8---(8)---8----8---(8)--|
G|----9-------9----9-------9-----9---------9----9---(9)--|
D|----10--x---10-----------10--------------10------------|
A|--0-----x------0----x-------0-------x-------0------x---|
E|--------x-----------x---------------x--------------x---|


E|----7s8---------8--(8)--8---8--(8)--8-7------|
B|---------8------8--(8)--8---8--(8)------8----|
G|-----------9----9--(9)------9--(9)-------0---|
D|---------------------------------------------|
A|-------------10-----x-----------x------------|
E|--0-7s8-------------x-----8-----x------------|


E|-------------------------------------------------------------7---------------|
B|--10--12----10---------------10--12-----10------------8--10--------8--8------|
G|----------------9---------9-----------------9--------------------------------|
D|---------x---------10--x-------------x---------10--x------------x---------x--|
A|--0------x------0------x-------------x-------------x-----10-----x-----10--x--|
E|---------x-------------x-----8-------x------8------x------------x---------x--|


E|------------(7)----------7---(7)------|
B|--8--10--8--(10)--8--10--10--(10)-----|
G|------------(0)----------0---(0)---0--|
D|-----0---------------0----------------|
A|-------------x----------------x-------|
E|-------------x----------------x-------|


E|----------------------------------------------------7------------|
B|--10--12-----------------10--12--------------8--10--------8--8---|
G|-------------9--9-----9-------------9--9-------------------------|
D|----------x--------x-------------x--------x------------x---------|
A|--0-------x-----0--x-------------x--------x-----10-----x-----10--|
E|----------x--------x-----8-------x-----8--x------------x---------|


E|------------(7)----------7--9p7------------------|
B|--8--10--8--(10)--8--10----------10--------------|
G|------------(0)----------------------------------|
D|-----0---------------0-----------0-----------x---|
A|-------------x-------------------------------x---|
E|-------------x-------------------------------x---|


E|--0--3-----(3)--3--------(3)--3-----3--(3)--3--5--(7)--------(7)------------(7)--|
B|-----------(0)-----------(0)-----------(0)--------(0)--10----(8)--10--------(8)--|
G|-----------(0)-----------(0)-----------(0)-----0--(0)--------(7)------------(7)--|
D|-------------------------------------------------------0--0-----------0--0-------|
A|------------x-------------x-------------x----------x----------x--------------x---|
E|-----3--3---x------3--3---x------3------x----------x----------x--------------x---|


E|------------(7)---------(7)--8------------------------0--8--(8)---------|
B|--10-----8--(10)-----8--(8)--8--12--<8>---8--8--8-----------(8)--12-----|
G|------------(7)---------(7)---------<9>---9--------9s7------------------|
D|------0-----------0-----------------<10>-----------------------------x--|
A|-------------x-----------x---0------<0>----------------------x-------x--|
E|-------------x-----------x----------------------------0--8---x-------x--|


E|--------------------------------|
B|--------------------------------|
G|----9---------------------------|
D|----10--x--12-x------12-x-------|
A|--------x-----x---------x--0----|
E|--8-----x-----x--8-8----x-------|


E|--7-----(7)--7-------(7)--7-------(7)-----------(7)----|
B|--------(10)---------(10)------10-(10)----10----(8)----|
G|-------------------------------------------------------|
D|-------------------------------------------------------|
A|--10-10--x-----10-----x-----10-----x---10----10--x--10-|
E|---------x------------x------------x-------------x-----|


E|--7-----(7)--7------(7)--7------(7)----------(7)----|
B|--------(10)--------(10)-----10-(10)---10----(8)----|
G|----------------------------------------------------|
D|--0-0----------0-----------0---------0----0------0--|
A|---------x-----------x-----------x------------x-----|
E|---------x-----------x-----------x------------x-----|


E|--8-(8)--------------------------0-8-(8)-----------------------------------|
B|--8-(8)--12------------8-8-8---------(8)--12----------------------------0--|
G|----------------9------9----9s7-------------------9------------------------|
D|-----------x------x--------------------------x----10--x----10-10-10s9-9----|
A|--0--x-----x--0---x--0----------------x------x--------x--------------------|
E|-----x-----x------x--------------0-8--x------x--8-----x--8-----------------|


E|---------------0-----------7-7-7---------7-----7--7-----------7-7-7---7--|
B|------------3--3-----3------------10-10--------8--8-----10----------8----|
G|------0-----0--0-----0-------------------------7--7----------------------|
D|---------x--0-----x------------------0------x--0--0--x--0----------------|
A|---------x--2-----x-------------------------x--0-----x-------------------|
E|---3-----x--3-----x--3----------------------x--------x-------------------|


E|--8-(8)--------------------------0-8-(8)------------------------------------<3>~---|
B|--8-(8)--12------------8-8-8---------(8)--12----------------------------0---<0>~---|
G|----------------9------9----9s7-------------------9-------------------------<0>~---|
D|-----------x------x--------------------------x----10--x----10-10-10s9-9-----<0>~---|
A|--0--x-----x--0---x--0----------------x------x--------x---------------------<2>~---|
E|-----x-----x------x--------------0-8--x------x--8-----x--8------------------<3>~---|


Legends:
s - slide
p - pull off
h - hammer
x - dead note/tap
() - strum down
~ - let it ring
<> - sequence pluck down

Play until your fingers BLEED!

-For comments and suggestions add me in my facebook account.-
Karl Riggy R. Peñas
-Qr4ever-

Добавлено: 26.09.2015
Другие материалы по этой песне:

Страница создана 21.02.2012
http://primanota.ru/sungha-jung/you-belong-with-me-chords.htm
Привет, Гость.
Предлагаем пройти революционный курс по гитаре.
Подарок от PrimaNota.Ru, забирай!