PrimaNota.ru - самый крупный в мире бесплатный архив песенных текстов, аккордов, табулатур и нот


Sungha Jung - Someone Like You - таба, видео

Регистрация Запомнить меня
Войти через:  Facebook Google Twitter Vk Yandex Mail.ru

Sungha Jung - Someone Like You - таба, видео

Печатать
Просмотров: 494
-------------------------------------------------------------------------------
                             Someone Like You - Sungha Jung
-------------------------------------------------------------------------------

Tuning: Standard (CAPO on 2nd)


INTRO (2x)

e|------------------------------------|---------------------------------------|
B|-----------3----------------3-------|-------------3-----------------3-------|
G|-------0-------0-------0--------0---|--------2--------2---------2-------2---|
D|------------------------------------|---------------------------------------|
A|------------------------------------|---------------------------------------|
E|---3---------------3----------------|----2-----------------2----------------|

e|-----------0----------------0-------|-------------0-----------------0-------|
B|------------------------------------|---------------------------------------|
G|-------0-------0-------0--------0---|--------0--------0---------0-------0---|
D|------------------------------------|---------------------------------------|
A|------------------------------------|----3-----------------3----------------|
E|---0---------------0----------------|---------------------------------------|


   FILL (one down strum)                VERSE
e|------------------------------------|---------------------------------------|
B|---3--------------------------------|----------------------3-------------0--|
G|---0--------------------------------|------------0-------------------0------|
D|---2--------------------------------|--------0-------0----------0-----------|
A|---3--------------------------------|---------------------------------------|
E|------------------------------------|----3-----------------3----------------|


e|------------------------------------|---------------------------------------|
B|------------------------------------|----------------------3-------------0--|
G|------------0-------2p0------0------|------------2-------------------2------|
D|-------0--------0--------0----------|--------0-------0----------0-----------|
A|------------------------------------|---------------------------------------|
E|---3----------------3---------------|----2-----------------2----------------|


e|------------------------------------|---------------------------------------|
B|------------------------------------|----------------------3-------------0--|
G|------------2-------2p0------0------|------------0---0---------------0------|
D|-------0--------0--------0----------|--------2------------------2-----------|
A|------------------------------------|---------------------------------------|
E|---2----------------2---------------|----0-----------------0----------------|


e|------------------------------------|---------------------------------------|
B|------------------------------------|----------------------0h1---------0----|
G|------------0-------2p0------0------|------------0--------------------------|
D|-------2--------2--------2----------|--------2-------2------------2---------|
A|------------------------------------|----3-----------------3----------------|
E|---0----------------0---------------|---------------------------------------|


e|------------------------------------|---------------------------------------|
B|------------------------------------|----------------------3-------------0--|
G|------------0-------2p0------0------|------------0-------------------0------|
D|-------2--------0--------2----------|--------0-------0----------0-----------|
A|---3----------------3---------------|---------------------------------------|
E|------------------------------------|----3-----------------3----------------|


e|------------------------------------|----------------------0----------------|
B|------------------------------------|------------------------------------3--|
G|------------0-------2p0------0------|------------2-------------------2------|
D|-------0--------0--------0----------|--------0-------0----------0-----------|
A|------------------------------------|---------------------------------------|
E|---3----------------3---------------|----2-----------------2----------------|


e|------------------------------------|---------------------------------------|
B|------------------------------------|----------------------3-------------0--|
G|------------2-------2p0------0------|------------0---0---------------0------|
D|-------0--------0--------0----------|----2----------------------------------|
A|------------------------------------|--------2------------------------------|
E|---2----------------2---------------|----0----------------------0-----------|


e|------------------------------------|---------------------------------------|
B|------------------------------------|----0h1---------------0----------------|
G|------------0-------2p0------0------|--------------0------------------2-----|
D|-------2--------2--------2----------|----------2----------------2-----------|
A|------------------------------------|----3--------------3-------------------|
E|---0----------------0---------------|---------------------------------------|


                                        PRE-CHORUS
e|------------------------------------|---------------------------------------|
B|------------------------------------|---0---0---0---0-----------------------|
G|---0--------------------------------|-----------------------2---------0-----|
D|------------2---2--------------2----|-------------------0--------0----------|
A|---3----3-------3--------3----------|---------------------------------------|
E|------------------------------------|---------------------------------------|


e|------------------------------------|---------------------------------------|
B|------------------------------------|--------------------0------------------|
G|---2-------2p0---2p0----------0-----|------------0-----------------0---2----|
D|-----------2------------2-----------|--------2-------2--------2-------------|
A|-------2----------------------------|----3---------------3------------------|
E|---0-------------0------------------|---------------------------------------|


e|------------------------------------|---------------------------------------|
B|------------------------------------|----0---0---0---0----------------------|
G|-----------2p0-------0-------0------|------------------------2-------0------|
D|-------2-----------------2----------|----0---------------0-------0----------|
A|---3-------------3------------------|---------------------------------------|
E|------------------------------------|---------------------------------------|


e|------------------------------------|---------------------------------------|
B|------------------------------------|---------------------------------------|
G|---2-------2p0---2p0----------0-----|--------------------------0---------0--|
D|-----------2------------2-----------|----2--------------------------2-------|
A|-------2----------------------------|----3------3----3----3-----------------|
E|---0-------------0------------------|---------------------------------------|


   CHORUS
e|---3---3---3--------3---------2-----|-------------------2----2--------3-----|
B|---3---3---3--------3---------3-----|-----------3-------3----3--------------|
G|---0------------0---------0---------|--------2----------2---------2---------|
D|------------------------------------|---------------------------------------|
A|------------------------------------|---------------------------------------|
E|-3----------------------------------|----2----------2-----------------------|


e|-------0----------------0-----------|----0--------------0----------2--------|
B|-------0----------------------------|-------------------1-------------------|
G|--------------0-----------------0---|-----------0-------0----0---------0----|
D|----------2-----------------2-------|-------2-------------------------------|
A|------------------------------------|----3----------3-----------------------|
E|---0---------------0----------------|---------------------------------------|


e|---3------------------3-------2-----|-------------------------2h3-----0-----|
B|---3---3------3---------------3-----|-----------3-------------3-------0-----|
G|-----------0-------------0----------|--------2-----------2------------------|
D|------------------------------------|---------------------------------------|
A|------------------------------------|---------------------------------------|
E|---3--------------3-----------------|----2----------2-----------------------|


e|--------------0---------------------|----3--------------7-------7-----------|
B|----------0-----------------0-------|-----------3-----------0-------0-------|
G|------0-----------------0-------0---|---------------------------------------|
D|------------------------------------|--------2------------------------------|
A|------------------------------------|----3----------------------------------|
E|---0-----------------0--------------|---------------------------------------|


e|---7---3--------------10-------7----|--------------------8p7----------------|
B|---0-----------0---------------8----|---10---------------8-------10----8----|
G|---0-------0-------0-------0---7----|--- 7----------7-----------------------|
D|-------------------------------0----|----------0----------------------------|
A|------------------------------------|---------------------------------------|
E|---3--------------------------------|---------------------------------------|


e|---7------7-------------------------|---------------------------------------|
B|----------8--------------10------8--|---------------------8----8------------|
G|------------------------------0-----|-------------9---------------0---------|
D|-------9------------9---------------|--------10------10---------------0-----|
A|------------------------------------|---------------------------------------|
E|---0-----------0--------------------|----8----------------8-----------------|


e|---3--------------------------------|----0-----------------------------0----|
B|---------------3---3------------3---|--------3------------3-----------------|
G|-----------0----------------0-------|-----------------------------0---------|
D|-------0---------------0------------|------------0----0-------0-------------|
A|------------------------------------|---------------------------------------|
E|---3---------------3----------------|----2----------------2-----------------|


e|-------0----------------0-----------|----0----------------3-----3--------3--|
B|-------0-------0-----------------0--|-------------0-------3----------0------|
G|-----------0----------------0-------|---------0-----------0-----------------|
D|------------------------------------|---------------------------------------|
A|------------------------------------|----3------------3---------------------|
E|---0----------------0---------------|---------------------------------------|


e|---3--------------------------------|----0----------------------------------|
B|---------------3---3-------------3--|---------3-----------------------------|
G|-----------0-----------------0------|--------------------2-------------0----|
D|-------0----------------0-----------|------------0---0-------------0--------|
A|------------------------------------|-------------------------0-------------|
E|---3---------------3----------------|----2---------------2------------------|


e|------------------------------------|---------------------------------------|
B|------------------------------------|----0-------0----0---------------------|
G|--------0-------0-------0-------0---|------------------------------0--------|
D|------------2---------------2-------|--------2----------------2--------2----|
A|------------------------------------|----3----------------3-----------------|
E|---0----------------0---------------|---------------------------------------|


                                        VERSE
e|------------------------------------|---------------------------------------|
B|------------0-----------------0-----|----------------------3-------------0--|
G|---------------------------------0--|------------0-------------------0------|
D|-------2-------2---------2----------|--------0-------0----------0-----------|
A|---3----------------3---------------|---------------------------------------|
E|------------------------------------|----3-----------------3----------------|


e|------------------------------------|---------------------------------------|
B|------------------------------------|----------------------3-------------0--|
G|------------0-------2p0------0------|------------2-------------------2------|
D|-------0--------0--------0----------|--------0-------0----------0-----------|
A|------------------------------------|---------------------------------------|
E|---3----------------3---------------|----2-----------------2----------------|


e|------------------------------------|---------------------------------------|
B|------------------------------------|----------------------3--------3----0--|
G|------------2-------2p0------0------|------------0--------------------------|
D|-------0--------0--------0----------|--------2-------2----------2-----------|
A|------------------------------------|---------------------------------------|
E|---2----------------2---------------|----0-----------------0----------------|


e|------------------------------------|---------------------------------------|
B|------------------------------------|----------------------0h1---------0----|
G|------------0-------2p0------0------|------------0--------------------------|
D|-------2--------2--------2----------|--------2-------2------------2---------|
A|------------------------------------|----3-----------------3----------------|
E|---0----------------0---------------|---------------------------------------|


e|------------------------------------|---------------------------------------|
B|------------------------------------|----------------------3-------------0--|
G|------------0-------2p0------0------|------------0-------------------0------|
D|-------2--------0--------2----------|--------0-------0----------0-----------|
A|---3----------------3---------------|---------------------------------------|
E|------------------------------------|----3-----------------3----------------|


e|------------------------------------|----------------------0----------------|
B|------------------------------------|------------------------------------3--|
G|------------0-------2p0------0------|------------2-------------------2------|
D|-------0--------0--------0----------|--------0-------0----------0-----------|
A|------------------------------------|---------------------------------------|
E|---3----------------3---------------|----2-----------------2----------------|


e|------------------------------------|---------------------------------------|
B|------------------------------------|----------------------3-------------0--|
G|------------2-------2p0------0------|------------0---0---------------0------|
D|-------0--------0--------0----------|----2----------------------------------|
A|------------------------------------|--------2------------------------------|
E|---2----------------2---------------|----0----------------------0-----------|


e|------------------------------------|---------------------------------------|
B|------------------------------------|----0h1---------------0----------------|
G|------------0-------2p0------0------|--------------0------------------2-----|
D|-------2--------2--------2----------|----------2----------------2-----------|
A|------------------------------------|----3--------------3-------------------|
E|---0----------------0---------------|---------------------------------------|


                                        PRE-CHORUS
e|------------------------------------|---------------------------------------|
B|------------------------------------|---0---0---0---0-----------------------|
G|---0------------0-------------------|-----------------------2---------0-----|
D|------------2------------------2----|---0---------------0--------0----------|
A|---3----3-------3--------3----------|---------------------------------------|
E|------------------------------------|---------------------------------------|


e|------------------------------------|---------------------------------------|
B|------------------------------------|--------------------0------------------|
G|---2-------2p0---2p0----------0-----|------------0-----------------0---2----|
D|---0---2----------------2-----------|--------2-------2--------2-------------|
A|------------------------------------|----3---------------3------------------|
E|------------------------------------|---------------------------------------|


e|------------------------------------|---------------------------------------|
B|------------------------------------|----0---0---0---0----------------------|
G|-----------2p0-------0-------0------|------------------------2-------0------|
D|-------2-----------------2----------|----0---------------0-------0----------|
A|---3-------------3------------------|---------------------------------------|
E|------------------------------------|---------------------------------------|


e|------------------------------------|---------------------------------------|
B|------------------------------------|---------------------------------------|
G|---2-------2p0---2p0----------0-----|--------------------------0---------0--|
D|-----------2------------2-----------|----2--------------------------2-------|
A|-------2----------------------------|----3------3----3----3-----------------|
E|---0--------------------------------|---------------------------------------|


e|------------------------------------|------------0-----------------0--------|
B|-----------------0--------------0---|------------0-----------------0--------|
G|---2--------2--------------0--------|--------0--------0--------0--------0---|
D|--------2-------------2-------------|---------------------------------------|
A|---3--------------------------------|----3----------------3-----------------|
E|------------------------------------|---------------------------------------|


e|----------2----------------2--------|
B|----------0----------------0--------|
G|------0-------0--------0--------0---|
D|------------------------------------|
A|---3---------------3----------------|
E|------------------------------------|



   CHORUS
e|---3---3---3--------3---------2-----|-------------------2----2--------3-----|
B|---3---3---3--------3---------3-----|-----------3-------3----3--------------|
G|---0------------0---------0---------|--------2----------2---------2---------|
D|------------------------------------|---------------------------------------|
A|------------------------------------|---------------------------------------|
E|-3----------------------------------|----2----------2-----------------------|


e|-------0----------------0-----------|----0--------------0----------2--------|
B|-------0----------------------------|-------------------1-------------------|
G|--------------0-----------------0---|-----------0-------0----0---------0----|
D|----------2-----------------2-------|-------2-------------------------------|
A|------------------------------------|----3----------3-----------------------|
E|---0---------------0----------------|---------------------------------------|


e|---3------------------3-------2-----|-------------------------2h3-----0-----|
B|---3---3------3---------------3-----|-----------3-------------3-------0-----|
G|-----------0-------------0----------|--------2-----------2------------------|
D|------------------------------------|---------------------------------------|
A|------------------------------------|---------------------------------------|
E|---3--------------3-----------------|----2----------2-----------------------|


e|--------------0---------------------|----3--------------7-------7-----------|
B|----------0-----------------0-------|-----------3-----------0-------0-------|
G|------0-----------------0-------0---|---------------------------------------|
D|------------------------------------|--------2------------------------------|
A|------------------------------------|----3----------------------------------|
E|---0-----------------0--------------|---------------------------------------|


e|---7---3--------------10-------7----|--------------------8p7----------------|
B|---0-----------0---------------8----|---10---------------8-------10----8----|
G|---0-------0-------0-------0---7----|--- 7----------7-----------------------|
D|-------------------------------0----|----------0----------------------------|
A|------------------------------------|---------------------------------------|
E|---3--------------------------------|---------------------------------------|


e|---7------7-------------------------|---------------------------------------|
B|----------8--------------10------8--|---------------------8----8------------|
G|------------------------------0-----|-------------9---------------0---------|
D|-------9------------9---------------|--------10------10---------------0-----|
A|------------------------------------|---------------------------------------|
E|---0-----------0--------------------|----8----------------8-----------------|


e|---3--------------------------------|----0----------------------------------|
B|---------------3---3------------3---|--------3------------------------0-----|
G|-----------0----------------0-------|---------------------2-------0---------|
D|-------0---------------0------------|------------0----0-------0-------------|
A|------------------------------------|---------------------------------------|
E|---3---------------3----------------|----2----------------2-----------------|


e|------------------------------------|---------------------------------------|
B|------------------------------------|----0--------0---0---2p0--------0------|
G|-------0-------0--------0--------0--|----------------------------0----------|
D|-----------2----------------2-------|---------2-----------------------------|
A|------------------------------------|----3----------------3-----------------|
E|---0----------------0---------------|---------------------------------------|




e|------------------------------------|---------------------------------------|
B|-------------------3----0-----------|----------------3---0------------------|
G|---0-------0-------------------0----|----0----0--------------------0--------|
D|---0-----------0--------0--0------0-|----0-------0-------0-----0-------0----|
A|------------------------------------|---------------------------------------|
E|------------------------------------|---------------------------------------|


e|------------------------------------|---------------------------------------|
B|---0----0-------0---0-----------0---|----1---0--------0---0-----------------|
G|---0------------0---0-------0-------|----0----------------0--------0--------|
D|------------2-----------2-----------|-------------------------2--------0----|
A|------------------------------------|---------------------------------------|
E|---0----------------0---------------|----0-------0--------0-----------------|


e|------------------------------------|
B|---------------3---0----------------|
G|---0----0--------------------0------|
D|---2---------------------2-------2--|
A|---3--------3------3----------------|
E|------------------------------------|



e|------------------------------------|---------------------------------------|
B|------------------0---0-------------|---0-----------------------------------|
G|-----------0--------------------0---|------------------2--------------------|
D|-------2-------2------------2-------|--------------2---2-------------2------|
A|---3------------------3-------------|---0------0----------------0-----------|
E|------------------------------------|---------------------------------------|


e|------------------------------------|--------------------------------0------|
B|------------------0-----------------|-------------0-------------------------|
G|---0----------0----------------0----|------------------0--------0--------0--|
D|--------------------------2---------|----2----2-----------------------------|
A|---2-----2--------------------------|----3------------------3---------------|
E|------------------------------------|---------------------------------------|



   CHORUS
e|---3---3---3--------3---------2-----|-------------------2----2--------3-----|
B|---3---3---3--------3---------3-----|-------------------3----3--------------|
G|---0----------------0---------2-----|-------------------2-------------------|
D|------------------------------------|---------------------------------------|
A|------------------------------------|---------------------------------------|
E|-3----------------------------------|----2----------------------------------|


e|-------0----------------------------|----0--------------0----------2--------|
B|-------0----------------------------|----0--------------0----------0--------|
G|-------0----------------------------|----0--------------0-------------------|
D|------------------------------------|----2----------------------------------|
A|------------------------------------|----3----------------------------------|
E|--0---------------------------------|---------------------------------------|


e|---3------------------3-------2-----|-------------------------2---3---0-----|
B|---3---3------3-------3-------3-----|-------------------------3-------------|
G|---0---0------0---------------2-----|-------------------------2-------------|
D|------------------------------------|---------------------------------------|
A|------------------------------------|---------------------------------------|
E|---3--------------------------------|----2----------------------------------|


e|---0--------------------------------|----3--------------7-------7-----------|
B|---0--------------------------------|----3--------------0-------0-----------|
G|---0--------------------------------|----0----------------------------------|
D|---2--------------------------------|----2----------------------------------|
A|---2--------------------------------|----3----------------------------------|
E|---0--------------------------------|---------------------------------------|


e|---7-----------7------10------------|--7-----------------8---7--------------|
B|---0-----------0--------------------|--8---10------------8-------10----8----|
G|---0--------------------------------|--7---7-------------7------------------|
D|------------------------------------|--0-----------0------------------------|
A|------------------------------------|---------------------------------------|
E|---3--------------------------------|---------------------------------------|


e|---7------7-------------------------|---------------------------------------|
B|---8------8--------------10------8--|---------------------8----8------------|
G|---9-----------------------------9--|---------------------9----9------------|
D|------------------------------------|--------------------10-----------0-----|
A|------------------------------------|---------------------------------------|
E|---0--------------------------------|----8----------------------------------|


e|---3--------------------------------|----0-----------------------------0----|
B|---3-----------3---3----------------|--------3------------3-----------------|
G|---------------0---0----------------|--------2------------2-------2---------|
D|------------------------------------|-----------------0-------0-------------|
A|------------------------------------|---------------------------------------|
E|---3--------------------------------|----2----------------2-----------------|


e|-------0----------------0-----------|----0----------------------0-----------|
B|-------0-------0-----------------0--|---------------------------------------|
G|-----------0----------------0-------|-------------0----------------------0--|
D|------------------------------------|---------2-------2--------------2------|
A|------------------------------------|----3----------------3-----------------|
E|---0----------------0---------------|---------------------------------------|



   CHORUS
e|---3---3---3--------3---------2-----|-------------------2----2--------3-----|
B|---3---3---3--------3---------3-----|-----------3-------3----3--------------|
G|---0------------0---------0---------|--------2----------2---------2---------|
D|------------------------------------|---------------------------------------|
A|------------------------------------|---------------------------------------|
E|-3----------------------------------|----2----------2-----------------------|


e|-------0----------------0-----------|----0--------------0----------2--------|
B|-------0----------------------------|-------------------1-------------------|
G|--------------0-----------------0---|-----------0-------0----0---------0----|
D|----------2-----------------2-------|-------2-------------------------------|
A|------------------------------------|----3----------3-----------------------|
E|---0---------------0----------------|---------------------------------------|


e|---3------------------3-------2-----|-------------------------2h3-----0-----|
B|---3---3------3---------------3-----|-----------3-------------3-------0-----|
G|-----------0-------------0----------|--------2-----------2------------------|
D|------------------------------------|---------------------------------------|
A|------------------------------------|---------------------------------------|
E|---3--------------3-----------------|----2----------2-----------------------|


e|--------------0---------------------|----3--------------7-------7-----------|
B|----------0-----------------0-------|-----------3-----------0-------0-------|
G|------0-----------------0-------0---|---------------------------------------|
D|------------------------------------|--------2------------------------------|
A|------------------------------------|----3----------------------------------|
E|---0-----------------0--------------|---------------------------------------|


e|---7---3--------------10-------7----|--------------------8p7----------------|
B|---0-----------0---------------8----|---10---------------8-------10----8----|
G|---0-------0-------0-------0---7----|--- 7----------7-----------------------|
D|-------------------------------0----|----------0----------------------------|
A|------------------------------------|---------------------------------------|
E|---3--------------------------------|---------------------------------------|


e|---7------7-------------------------|---------------------------------------|
B|----------8--------------10------8--|---------------------8----8------------|
G|------------------------------0-----|-------------9---------------0---------|
D|-------9------------9---------------|--------10------10---------------0-----|
A|------------------------------------|---------------------------------------|
E|---0-----------0--------------------|----8----------------8-----------------|


e|---3--------------------------------|----0-----------------------------0----|
B|---------------3---3------------3---|--------3------------3-----------------|
G|-----------0----------------0-------|-----------------------------0---------|
D|-------0---------------0------------|------------0----0-------0-------------|
A|------------------------------------|---------------------------------------|
E|---3---------------3----------------|----2----------------2-----------------|


e|-------0----------------0-----------|----0----------------3-----3--------3--|
B|-------0-------0-----------------0--|-------------0-------3----------0------|
G|-----------0----------------0-------|---------0-----------0-----------------|
D|------------------------------------|---------------------------------------|
A|------------------------------------|----3------------3---------------------|
E|---0----------------0---------------|---------------------------------------|


e|---3--------------------------------|----0----------------------------------|
B|---------------3---3-------------3--|---------3-----------------------------|
G|-----------0-----------------0------|--------------------2-------------0----|
D|-------0----------------0-----------|------------0---0-------------0--------|
A|------------------------------------|-------------------------0-------------|
E|---3---------------3----------------|----2---------------2------------------|


e|------------------------------------|---------------------------------------|
B|------------------------------------|----0--------0---0---2p0--------0------|
G|-------0-------0--------0--------0--|----------------------------0----------|
D|-----------2----------------2-------|---------2-----------------------------|
A|------------------------------------|----3----------------3-----------------|
E|---0----------------0---------------|---------------------------------------|



OUTRO

e|------------------------------------|---------------------------------------|
B|------------3-----------------3-----|------------3---------------3----------|
G|------------------------------------|---------------------------------------|
D|-------4--------4--------4-------4--|--------4------4--------4-------4------|
A|------------------------------------|---------------------------------------|
E|---3-----------------3--------------|----2---------------2------------------|


e|------------------------------------|---------------------------------------|
B|------------3-----------------3-----|---------3---------------3---------3---|
G|------------------------------------|-----------------------------------0---|
D|-------4--------4--------4-------4--|-----4------4--------4------4------4---|
A|------------------------------------|--3--------------3---------------------|
E|---0-----------------0--------------|-----------------------------------3---|

********************************************************************************
Добавлено: 12.06.2013
Другие материалы по этой песне:

Страница создана 14.03.2012
http://primanota.ru/sungha-jung/someone-like-you-chords.htm
Привет, Гость.
Предлагаем пройти революционный курс по гитаре.
Подарок от PrimaNota.Ru, забирай!