PrimaNota.ru - самый крупный в мире бесплатный архив песенных текстов, аккордов, табулатур и нот


Sungha Jung - You Raise Me Up - таба, видео

Регистрация Запомнить меня
Войти через:  Facebook Google Twitter Vk Yandex Mail.ru

Sungha Jung - You Raise Me Up - таба, видео

Печатать
Просмотров: 236

Title: You Raise Me Up

Artist: Sungha Jung

Arranged by: Sungha Jung

Tabbed by: Ryan R. Gonzales

Location: Rosario, Batangas - Philippines

Tuning: Drop D - e B G D A D (Capo on 5th fret)



    ^            ^                  ^
e -------------|------------------|-------------------|--------------------|
B --1--1--1--1-|-1--1--1----------|-------------------|--------------------|
G -------------|------------------|-2~----------------|-----------------2--|
D --3--3--3--3-|-3--3--3--------3-|--------0----------|----3--3~--2--3-----|
A -------------|----------3--3----|-----3-----3--3--0-|-3------------------|
D -------------|------------------|-3~----------------|-3------------------|


  ^
--------------------|---------------0-|-0-h-1~-------------------|--------------------|
--1~-----3-----1----|---------1--1----|------------3-----1-----1-|--------------------|
------------------2-|-0~--------------|---------------------3----|--------------0--2--|
------3-------------|-----------------|---------3----------------|----3~--2--3--------|
---------1--0-------|-3~--1~----------|---------------1----------|--------3-----1-----|
--3~----------------|-----------------|-0~-----------------------|-3------------------|


        ^            v
-------------------|--------------0-|-1~-------------------|----------------3--1-p-0--|
-------------------|-------1-h-3----|--------3-----1-----1-|-------------1------------|
-----2--2--0-------|----------------|-----------------3----|--------------------------|
--------------3--2-|-3~~------------|-----3----------------|-------3------------------|
--------3----------|-0~~------------|-----------1----------|----0-----1---------------|
--3----------------|-3~~------------|-0~-------------------|-3------------------------|


                                                 ^
--0-h-1~-------------------|-----------------0-|-------------------|----1------------------|
-------------3-----1-----1-|-------------------|-6~-----3-----1----|-1~--------------------|
----------------------3----|----------3-s-5----|-5~--------------3-|-----------------0--2--|
----------3----------------|----3--------------|-----3~------------|----------2-h-3--------|
----------------1----------|-------1~----------|-----------1-------|-------1---------------|
--0~-----------------------|-3-----------------|-0~----------------|-3~--------------------|


        ^            ^                       ^             ^
-------------------|-----------------------|-------------|------------------|
-------------------|-----------------------|-0~----------|------------------|
-----2--2--0-------|---------------------0-|-0~----------|-2---0--0---------|
--------------3--2-|-3----------------0----|-0------0----|-0~--------0-h-2--|
--------3----------|-0---------------------|-2---2-----2-|-3~---------------|
--3----------------|-3--3--3--3--2~~-------|-------------|-5~---------------|


                    ^      ^
-------------------------|----------|-0--------------|--------------------|
-----------------------0-|-3~-------|-0-----0-h-3--0-|--------------------|
--------0--------0--0----|-0~-----0-|-------0--------|-2~-----------------|
--0--------0-----0--0----|-----0----|----0-----------|----0---------------|
-----2-------------------|----------|-3--------------|-------0------------|
--5-----------5-----4----|-2~-------|----------------|-0--------0-h-2--4--|


  ^             ^             ^                ^     ^
------------2-|-3~----------|-0-h-2--0-------|----------|
--0-h-3--3----|-0~----------|-3---------3--1-|-3-----0--|
--0-----------|-0~--------0-|-0--------------|-0-----0--|
--0-----------|--------2----|----------------|----0-----|
--------------|-----2-------|-3--------------|----------|
--------------|-2~----------|----------------|-5--------|


                             ^
---------------------------|------------|---------------|----------------------0--2-h-3--|
------------------1-h-3--1-|-0--------3-|-0-------------|-------------------3------------|
---------------0-----------|-0----------|-------2--0----|-0------------------------------|
------------2--------------|-------0----|----2--------4-|-------0--------0---------------|
--0-h-2--3-----------------|----2-------|-3--------0----|----2-----2---------------------|
---------------------------|-5----------|---------------|-5-----------5--------4---------|


  ^             ^                ^     ^
--3~----------|-0-h-2--0-------|-----------------------5--3-p-2--|
--0~----------|-3~--------3--1-|-3-----0------------3------------|
--0~--------0-|-0~-------------|-0-----0-------------------------|
---------2----|----------------|---------------------------------|
------2-------|-3~-------------|----2-----0-h-2--3---------------|
--2~----------|----------------|-0-------------------------------|


  ^             ^              ^     ^                    ^
--3~----------|-2-p-0~-------|--------------------------|-----------|
--0~----------|-3~------3--1-|-3-----0----------------7-|-8~--------|
--0~--------0-|-0~-----------|-0-----0-------------7----|--------0--|
---------2----|--------------|--------------------------|-----0-----|
------2-------|-3~-----------|----2-----0-h-2--3~-------|-7~--------|
--2~----------|--------------|-0------------------------|-----------|


        ^       ^     ^                              ^
--0-----------|-------3-|--------------------------|-------------|
--------3--1--|-3-----0-|-----------------1-h-3--1-|-0--------3--|
--------0-----|-0-------|--------------0-----------|-0-----------|
-----2--------|----0----|-----------2--------------|-------0-----|
--3-----------|---------|-0-h-2--3-----------------|----2--------|
--------------|-5-------|--------------------------|-5-----------|


                               ^            ^            ^
----------------|------------|------------|------------|----0--2--4--|
--0-------------|------------|------------|------------|-------------|
--------2--0----|-0~---------|-2~---------|-0~---------|-1-----------|
-----2--------4-|-0~---------|-0~----0----|-0~---------|-0-----------|
--3--------0----|------------|----------0-|-2~---------|-------------|
----------------|-5--5--5--5-|-4--4-------|-5--5--5--5-|-2-----0-----|


  ^                                           |-------|
--5~---------|-4--------2--0-------|-0-------------------------|-------5--5-p-4--|
--5~---------|-------------------3-|---------------------------|----3------------|
--2-----2----|-------2-------------|-------2--2-s-4-s-2--1-h-2-|-----------------|
-----2-----2-|----2-----------2----|----2----------------------|-0---------------|
-------------|---------------------|-0-------------------------|-----------------|
--4~---------|-0-------------------|---------------------------|-----------------|


  ^
--5~---------|-4--------2--0-------|-0----------|--------4--|
--5~---------|-------------------3-|------------|-----3-----|
--2-----2----|-------2-------------|-------2----|-----------|
-----2-----2-|----2-----------2----|----2-----2-|-0~--------|
-------------|---------------------|-0----------|-----------|
--4~---------|-0-------------------|------------|-----------|


  ^
--5~----------4-----2-p-0----|-0-----4-s-5-|-----------------------|-----------|
--7~-----------------------3-|-------------|--------------3-h-5--3-|-2~-----2--|
-----------------------------|----2--------|-----------2-----------|-----2-----|
--------4--------4-----------|-------------|--------0--------------|-2~--------|
-----4-----------------------|-0-----------|-2-h-4-----------------|-----------|
--4~-------0-----------------|-------------|-----------------------|-----------|


                                     T
----------|---------|-------------------|----0--2--4--|
--2-----0-|---------|-------------2~-x--|-------------|
-----2----|-2-----1-|-2~----2--------x--|-------------|
----------|----2----|----2-----2-----x--|-------------|
----------|---------|-0--------------x--|-0-----------|
--0-------|-2-------|-------------------|-------------|


  ^
--5~----------4-----2-p-0----|-0-----4-s-5-|-----------------------|-----------|
--7~-----------------------3-|-------------|--------------3-h-5--3-|-2~-----2--|
-----------------------------|----2--------|-----------2-----------|-----2-----|
--------4--------4-----------|-------------|--------0--------------|-2~--------|
-----4-----------------------|-0-----------|-2-h-4-----------------|-----------|
--4~-------0-----------------|-------------|-----------------------|-----------|


                       ^               ^   ^
----------|----------|------------|----------------|
--2-----0-|----------|----------0-|----------------|
-----2----|-2-----1~-|-2--2-------|----2~--1-h-2~--|
----------|----2-----|-2----------|----2~--2~------|
----------|----------|-3-----3----|-2------0~------|
--0-------|-2--------|------------|----------------|




Tablature Legend
----------------

h   - hammer on
s   - slide
p   - pull off
x   - dead string
T   - tap the strings
~   - let the note ring / vibrato
^   - pluck the strings smoothly from top to bottom
v   - pluck the strings smoothly from bottom to top



echo "Hello World!";

for - Charlene Mae -

Play until your fingers bleed!
Добавлено: 27.02.2012
Другие материалы по этой песне:

Страница создана 27.02.2012
http://primanota.ru/sungha-jung/you-raise-me-up-chords.htm
Привет, Гость.
Предлагаем пройти революционный курс по гитаре.
Подарок от PrimaNota.Ru, забирай!