PrimaNota.ru - самый крупный в мире бесплатный архив песенных текстов, аккордов, табулатур и нот


Sungha Jung - Last Christmas - таба, видео

Регистрация Запомнить меня
Войти через:  Facebook Google Twitter Vk Yandex Mail.ru

Sungha Jung - Last Christmas - таба, видео

Печатать
Просмотров: 275
Last Christmas               
Wham!                   
Sungha Jung
yuji812


     ^                             ^                            
     E   E   E  E  S S E  E  E     S S E  E  E  S S E   E   E   
E||--0--(0)-----0---------------|--0---0-----0-----------------|
B||--3---3---3-----3---3--3-----|--3---3--3--3--3---3--(3)-----|
G||--2---2---2------------2-----|--2---2--2-----2---2--(2)-----|
D||--0--------------------0-----|---------0------------(0)-----|
A||--0-------x------------x-----|---------x-------------x---0--|
D||--0-------x-----0------x--0--|---------x-----0---0---x------|


                                ^                             
  E  E  E  E  S S E   E   E     E  E   E   E  S S E   E   E   
--0--0--0--------------------|--0--0--(0)--0-----------------|
-----3--3-----3---3--(3)-----|--3--3--(3)-----3---3--(3)-----|
--------------2---2--(2)-----|--2-------------2---2--(2)-----|
---------------------(0)-----|-----------------------(0)-----|
--2-----x--2----------x---2--|---------x------2---2---x------|
--------x-------------x------|---------x--------------x---0--|


                                ^                              
  E  E  E  E  S S E   E   E     S S E   E   E  S S E  E   E    
--0--0--0--------------------|------0--(0)--------------------|
-----3--3-----3---3--(3)-----|--3---3--(3)-----2---2--2-------|
--------------0---0--(0)-----|--2------(2)-----2---2--2--(2)--|
---------------------(0)-----|--2--------------2------2--(2)--|
--2-----x-------------x------|--0-------x---0---------x-------|
--2-----x--2--2---2---x---2--|----------x-------------x-------|


  ^                                                     ^                       
  Q    E  Q    E  E  E     E  E  E  E  Q     Q          Q    E  E  E  E  E  E   
--0-------0-------------|-----------0--x-----------||---0-------0--------------|
--3----3--3----3-----3--|--L--3--3--3--x----(0)----||---3-------------3--------|
--2----2-------2-----2--|--L--2--2--2--x----(0)----||*--2-------------2--------|
--0----0-------0--------|--------0--0--x----(0)----||*--0----------------------|
--0----x----------x-----|--------x-----x-----x-----||---0----x-----------x-----|
--0----x----------x-----|--------x-----x-----x-----||---0----x-----0-----x--0--|


  ^                                                       
  E  E    E  E  E  E  E  E     E  E    E  E  E  E  E  E   
--0--0--0g2--L--------------|--0--0--0g2--L--------------|
--3-------3--3-----3--------|----------3-----3--L--L--3--|
--2-------2--------2--------|----------2--------2-----2--|
----------------------------|----------------------------|
----------x-----------x--0--|--2-------x--2--2-----x-----|
----------x-----0-----x-----|----------x-----------x-----|


                              ^                         
  E  E  E  E   E   E  Q       Q    E  E  E  E   E   E   
---------------------------|--2----2--0----------------|
--2--3--2--0--(0)--0--0----|--0----0--0-----0--(0)-----|
--2-----2--2--(2)--2--2----|--0----0--------0--(0)-----|
---------------------------|--2----------------(2)-----|
--2-----x--2--(2)-----x----|--2----x------------x------|
--------x------x------x----|--2----x--2--2------x---2--|


  ^                                                            
  E  E  E  Q     E   E    E     E  E   E   E   E   E   E   E   
--2--3--2--0-----------------|--------------------------------|
--0--0-----0------------2g3--|--L--3--(3)--3--(3)--3--(3)--2--|
--0-------------(0)----------|-----2--(2)--2--(2)--2--(2)--2--|
----------------(2)----------|--------(2)-----(2)-----(2)-----|
--------x------------x-------|--0------x-------x-------x---0--|
--------x--2---------x-------|---------x-------x-------x------|


  E  E  E  E  E  E   Q          Q    E  E    E  E  E   E    
----------------------------||-------------4g5---------L---|
-----------------2--(2)-----||-----------------------------|
-----2-----------2--(2)----*||--2----------------------2---|
-----2--------2-----(2)----*||-----------------------------|
--0-----x--0---------x------||-------x-------------x-------|
--------x------------x------||--0----x--0-------0--x--(0)--|


  E  E  E  E    E  E   E  E     E  E  E  E  E  E  E  E   
-----------------------------|--0-----0-----------------|
-------------------0h--2--3--|--------3--2--0-----------|
--L-----------1g2------------|-----2--2--2--2--2-----2--|
-----0-----------------------|-----------------------0--|
--------x--------------x-----|--2-----x-----2-----x--2--|
--L-----x--0-----------x-----|--------x-----------x-----|


  E  E   E   E    E   E  E   E     E  E  E  E  E  E   E   E   
----------------3g5p--2---------|-------------------------0--|
-----0-------------------3p--0--|--------------0-----(0)--0--|
--L--2--(2)---------------------|--0--------0-----0--(0)-----|
--L-----(0)---------------------|--------------------(2)-----|
--L------x---2------------------|-----2--x------------x------|
---------x----------------------|--2-----x-----2------x------|


  E  E  E   E   E   E   E  E     Q    E  E    E  E  E  E   
--L--0--0--(0)--7p--3p--0-----|---------------------------|
--L--0--0--(0)----------------|-------2--2--2g3--2--0-----|
-----0--0------------------6--|--2----2-------------2--2--|
-----2------------------------|--2----2-------------2--2--|
------------------------------|--0----x-------0-----x--0--|
------------------------------|-------x-------------x-----|


   E   E   E   E   E   E   E   E     E  E  E  E  E  E   E   E   
----------------------------------|--------0-------------------|
----------------------------------|--------3--------3--(3)-----|
--(2)--2--(2)--2--(2)--2--(2)--2--|--------2--------2--(2)-----|
--(2)--2--(2)--2--(2)--2--(2)--2--|-----0--------0-----(0)-----|
---x---0---x---0---x---0---x------|--------x------------x------|
---x-------x-------x-------x------|--0-----x--0---------x---0--|


    E  E   E   Q      E   E   E     E  E   E   E  E  E   E   E   
--4g5------L---2----2g0----------|----------------------(0)-----|
---------------3------3--(3)--3--|--------(3)--------3--(3)-----|
----------(0)--2------2--(2)-----|-----2--(2)--------2--(2)-----|
----------(0)------------(0)-----|--------(0)-------------------|
-----------x--------------x------|--2------x---2--2------x---2--|
-------0---x---0----------x------|---------x-------------x------|


    E   E   E  Q      E   E   E     E  E  E  S S E  E   E   E   
--5g7-------L--2----2g0----------|--------2---------0--(0)-----|
---------------3---------(3)--3--|--------0--0-3----0--(0)--0--|
-------(0)-----2---------(2)-----|-------------0-------(0)-----|
---------------------------------|-----2-----------------------|
------------x--2----------x------|--------x-------------x------|
------------x-------------x------|--2-----x------2------x------|


  E  E  E  S S E   E    E     E     E  E   E   E   E   E   E   E   
--------2--------------(2)-------|--------------------------------|
--------0--0-3---------(0)--2g3--|-----L--(3)--3--(3)--3--(3)--3--|
-------------0----(0)--(0)-------|--------(2)--2--(2)--2--(2)--2--|
-----2---------------------------|-----2--(2)--2--(2)--2--(2)--2--|
--------x---------------x--------|--0------x-------x-------x------|
--2-----x------2--------x--------|---------x-------x-------x------|


  E  E   E  E   E   E   E   E     E  E  E  E  E  E   E   E   
-------------------------------|--------0-------------------|
--2--3p--2---------------------|--------3--------3--(3)-----|
--2------2--2--(2)--2--(2)--2--|--------2--------2--(2)-----|
------------2--(2)--2--(2)--2--|-----0--------0-----(0)-----|
--0------x------x-------x------|--------x------------x------|
---------x------x-------x------|--0-----x--0---------x---0--|


  E  E   E   Q    E   E   E     E  E   E   E  E  E   E   E   
-------------0---------------|-----0--(0)-----------(0)-----|
--2--3-------3----3--(3)--3--|-----3--(3)-----2--3--(3)-----|
--2--2--(2)--2-------(2)--2--|-----2--(2)--2--2--2--(2)-----|
--------(0)----------(0)-----|------------------------------|
---------x------------x------|--2------x------2------x---2--|
---------x---0--------x------|---------x-------------x------|


  E  E   E   Q    E   E    E      E   E  E  E  E  E   E   E   
-------------------------------|--2p--0-----0-----0-------2--|
--2--3--(3)--2----3--(3)-------|--0------3--0-----0--(0)--0--|
--2--2--(2)--2----2--(2)--(0)--|---------0-----------(0)-----|
--------------------------(0)--|-----------------------------|
---------x---2--------x--------|---------x------------x------|
---------x------------x--------|--2------x-----2------x---2--|


  E  E   E   E  E   E    E     E     E  E   E   E   E   E   E   E   
--L----------0--------------------|--------------------------------|
--L--3--(0)--0----------(0)--2g3--|-----L--(3)--3--(3)--3--(3)--3--|
-----0--(0)--------(0)--(0)-------|--------(2)--2--(2)--2--(2)--2--|
--------(0)-----------------------|-----2--(2)--2--(2)--2--(2)--2--|
---------x---------------x--------|--0------x-------x-------x------|
--L------x------2--------x--------|---------x-------x-------x------|


                                    ^                       
  E  E   E  E   E   E   E   E       Q    E  E  E  E  E  E   
-------------------------------||---0-------0--------------|
--2--3p--2---------------------||---3-------------3--------|
--2------2--2--(2)--2--(2)--2--||*--2-------------2--------|
------------2--(2)--2--(2)--2--||*--0----------------------|
--0------x------x-------x------||---0----x-----------x-----|
---------x------x-------x------||---0----x-----0-----x--0--|


  ^                                                       
  E  E    E  E  E  E  E  E     E  E    E  E  E  E  E  E   
--0--0--0g2--L--------------|--0--0--0g2--L--------------|
--3-------3--3-----3--------|----------3-----3--L--L--3--|
--2-------2--------2--------|----------2--------2-----2--|
----------------------------|----------------------------|
----------x-----------x--0--|--2-------x--2--2-----x-----|
----------x-----0-----x-----|----------x-----------x-----|


                              ^                         
  E  E  E  E   E   E  Q       Q    E  E  E  E   E   E   
---------------------------|--2----2--0----------------|
--2--3--2--0--(0)--0--0----|--0----0--0-----0--(0)-----|
--2-----2--2--(2)--2--2----|--0----0--------0--(0)-----|
---------------------------|--2----------------(2)-----|
--2-----x--2--(2)-----x----|--2----x------------x------|
--------x------x------x----|--2----x--2--2------x---2--|


  ^                                                              
  E  E  E  Q     E   E    E     E  E   E   E   E   E   E     E   
--2--3--2--0-----------------|----------------------------------|
--0--0-----0------------2g3--|--L--3--(3)--3--(3)--3--(3)-------|
--0-------------(0)----------|-----2--(2)--2--(2)--2--(2)--4g6--|
----------------(2)----------|--------(2)-----(2)-----(2)-------|
--------x------------x-------|--0------x-------x-------x-----0--|
--------x--2---------x-------|---------x-------x-------x--------|


  E  E   E   E   E   E   E    E        E  E   E   E   E   E   E   E   
--------(0)--0--(0)--0--(0)--------||--------------------------------|
--------(0)--0--(0)--0--(0)--------||--L--3--(3)--3--(3)--3--(3)--2--|
--L-----(6)--6--(6)--6--(6)--(0)--*||-----2--(2)--2--(2)--2--(2)--2--|
-----7--(7)--7--(7)--7--(7)--(0)--*||--------(2)-----(2)-----(2)-----|
--L------x-------x-------x---------||--0------x-------x-------x---0--|
---------x-------x-------x---------||---------x-------x-------x------|


  E  E  E  E  E  E   Q        Q    E  E    E  E  E   E    
---------------------------|-------------4g5---------L---|
-----------------2--(2)----|-----------------------------|
-----2-----------2--(2)----|--2----------------------2---|
-----2--------2-----(2)----|-----------------------------|
--0-----x--0---------x-----|-------x-------------x-------|
--------x------------x-----|--0----x--0-------0--x--(0)--|


  E  E  E  E    E  E   E  E     E  E  E  E  E  E  E  E   
-----------------------------|--0-----0-----------------|
-------------------0h--2--3--|--------3--2--0-----------|
--L-----------1g2------------|-----2--2--2--2--2-----2--|
-----0-----------------------|-----------------------0--|
--------x--------------x-----|--2-----x-----2-----x--2--|
--L-----x--0-----------x-----|--------x-----------x-----|


  E  E   E   E    E   E  E   E     E  E  E  E  E  E   E   E   
----------------3g5p--2---------|-------------------------0--|
-----0-------------------3p--0--|--------------0-----(0)--0--|
--L--2--(2)---------------------|--0--------0-----0--(0)-----|
--L-----(0)---------------------|--------------------(2)-----|
--L------x---2------------------|-----2--x------------x------|
---------x----------------------|--2-----x-----2------x------|


  E  E  E   E   E   E   E  E     Q    E  E    E  E  E  E   
--L--0--0--(0)--7p--3p--0-----|---------------------------|
--L--0--0--(0)----------------|-------2--2--2g3--2--0-----|
-----0--0------------------6--|--2----2-------------2--2--|
-----2------------------------|--2----2-------------2--2--|
------------------------------|--0----x-------0-----x--0--|
------------------------------|-------x-------------x-----|


   E   E   E   E   E   E   E   E     E  E  E  E  E  E   E   E   
----------------------------------|--------0-------------------|
----------------------------------|--------3--------3--(3)-----|
--(2)--2--(2)--2--(2)--2--(2)--2--|--------2--------2--(2)-----|
--(2)--2--(2)--2--(2)--2--(2)--2--|-----0--------0-----(0)-----|
---x---0---x---0---x---0---x------|--------x------------x------|
---x-------x-------x-------x------|--0-----x--0---------x---0--|


    E  E   E   Q      E   E   E     E  E   E   E  E  E   E   E   
--4g5------L---2----2g0----------|----------------------(0)-----|
---------------3------3--(3)--3--|--------(3)--------3--(3)-----|
----------(0)--2------2--(2)-----|-----2--(2)--------2--(2)-----|
----------(0)------------(0)-----|--------(0)-------------------|
-----------x--------------x------|--2------x---2--2------x---2--|
-------0---x---0----------x------|---------x-------------x------|


  E  E  E    Q      E  E  E     E  E  E  E  E  E   E   E   
-----------5g7----2g0--------|-----------------2-------0--|
--2--3--------------------3--|--------3--------3--(0)--0--|
--2--2-----------------------|--------0-----------(0)--0--|
-----------------------------|-----2--------2-------------|
--------x--------------x-----|--------x------------x------|
--------x--------------x-----|--2-----x--2---------x------|


  E  E   E   E  E  E    E   E     E  E   E   E   E   E   E   E   
--L----------------------------|--------------------------------|
--L-----(0)--0-----2s---3---3--|-----L--(3)--3--(3)--3--(3)-----|
--L-----(0)--0---------(0)-----|--------(2)--2--(2)--2--(2)--2--|
-----2-----------------(2)-----|-----2--(2)--2--(2)--2--(2)--2--|
---------x--------------x------|--0------x-------x-------x------|
---------x------2-------x------|---------x-------x-------x------|


                    NH              ^                       
  E  E   E  E  E    E   E    E      Q    E  E  E  E  E  E   
------------------<>5------------|--0-------0--------------|
--2--3p--2-----x--<>5------------|--3-------------3--------|
--2------2--2--x-------(0)--(0)--|--2-------------2--------|
------------2--x-------(0)--(0)--|--0----------------------|
--0------x--------------x--------|--0----x-----------x-----|
---------x--------------x--------|--0----x-----0-----x--0--|


  ^                                                       
  E  E    E  E  E  E  E  E     E  E    E  E  E  E  E  E   
--0--0--0g2--L--------------|--0--0--0g2--L--------------|
--3-------3--3-----3--------|----------3-----3--L--L--3--|
--2-------2--------2--------|----------2--------2-----2--|
----------------------------|----------------------------|
----------x-----------x--0--|--2-------x--2--2-----x-----|
----------x-----0-----x-----|----------x-----------x-----|


                              ^                         
  E  E  E  E   E   E  Q       Q    E  E  E  E   E   E   
---------------------------|--2----2--0----------------|
--2--3--2--0--(0)--0--0----|--0----0--0-----0--(0)-----|
--2-----2--2--(2)--2--2----|--0----0--------0--(0)-----|
---------------------------|--2----------------(2)-----|
--2-----x--2--(2)-----x----|--2----x------------x------|
--------x------x------x----|--2----x--2--2------x---2--|


  ^                                                            
  E  E  E  Q     E   E    E     E  E   E   E   E   E   E   E   
--2--3--2--0-----------------|--------------------------------|
--0--0-----0------------2g3--|--L--3--(3)--3--(3)--3--(3)--2--|
--0-------------(0)----------|-----2--(2)--2--(2)--2--(2)--2--|
----------------(2)----------|--------(2)-----(2)-----(2)-----|
--------x------------x-------|--0------x-------x-------x---0--|
--------x--2---------x-------|---------x-------x-------x------|


                   TH           ^                       
  E  E  E  E  E    Q     E      Q    E  E  E  E  E  E   
-----------------------------|--0-------0--------------|
-----------------<>2---------|--3-------------3--------|
-----2-----------<>2----(2)--|--2-------------2--------|
-----2-----------<>2----(2)--|--0----------------------|
--0-----x--0-----------------|--0----x-----------x-----|
--------x-----0--------------|--0----x-----0-----x--0--|


  ^                                                       
  E  E    E  E  E  E  E  E     E  E    E  E  E  E  E  E   
--0--0--0g2--L--------------|--0--0--0g2--L--------------|
--3-------3--3-----3--------|----------3-----3--L--L--3--|
--2-------2--------2--------|----------2--------2-----2--|
--0-------------------------|----------------------------|
--0-------x-----------x--0--|--2-------x--2--2-----x-----|
--0-------x-----0-----x-----|----------x-----------x-----|


                              ^                         
  E  E  E  E   E   E  Q       Q    E  E  E  E   E   E   
---------------------------|--2----2--0----------------|
--2--3--2--0--(0)--0--0----|--0----0--0-----0--(0)-----|
--2-----2--2--(2)--2--2----|--0----0--------0--(0)-----|
---------------------------|--2----------------(2)-----|
--2-----x--2--(2)-----x----|--2----x------------x------|
--------x------x------x----|--2----x--2--2------x---2--|


  ^                                                              
  E  E  E  Q     E   E    E     E  E   E   E   E   E   E     E   
--2--3--2--0-----------------|----------------------------------|
--0--0-----0------------2g3--|--L--3--(3)--3--(3)--3--(3)-------|
--0-------------(0)----------|-----2--(2)--2--(2)--2--(2)--4g6--|
----------------(2)----------|--------(2)-----(2)-----(2)-------|
--------x------------x-------|--0------x-------x-------x-----0--|
--------x--2---------x-------|---------x-------x-------x--------|


                                     ^                          
  E  E   E   E   E   E   E    E      E  E  E  E  E  E   E   E   
---------------------0--(0)-------|--0-------------------------|
---------------------0--(0)-------|--3--3--------2--3--(3)-----|
--L-----(6)--6--(6)--6--(6)--(0)--|--2--2--2-----2--2--(2)-----|
-----7--(7)--7--(7)--7--(7)--(0)--|--0--0--0-----------(0)-----|
--L------x-------x-------x--------|--0-----x------------x------|
---------x-------x-------x--------|--0-----x--0---------x---0--|


  E  E   E   Q    E   E   E     E  E  E  E  E  E  E  E   
--0--------------------------|--0-----------------------|
--3--3--(3)--3----3----------|--------3-----2--3--------|
--2--2--(2)--2----2--(2)-----|--------2-----2-----------|
--------(0)----------(0)-----|--------------------------|
---------x------------x---0--|--2--2--x--2--------x--2--|
---------x---0--------x------|--------x-----------x-----|


  E  E  E  E   E   E   E   E     E  E  E  Q    E   E   E   
--0------------------------2--|--L--2--2--0----0-------2--|
--3--3-----3--(3)--3--(3)--0--|--L--0--0--0----0--(0)--0--|
--2--2-----2--(2)--2--(2)--0--|--L--0--0--0----0--(0)--0--|
------------------------------|-------------------(2)-----|
--------x--2---x-------x------|--------x-----------x------|
--------x------x-------x---2--|--L-----x--2--------x---2--|


  ^                                                                 
  E   E   E  E  E  E   E     E     E  E   E   E   E   E   E     E   
--L----------0------------------|----------------------------------|
--L-------3--0--------(0)--2g3--|--L--3--(3)--3--(3)--3--(3)-------|
--L--(0)--0--0--------(0)-------|-----2--(2)--2--(2)--2--(2)--4g6--|
-----(2)-----------2--(0)-------|--------(2)-----(2)-----(2)-------|
----------x------------x--------|--0------x-------x-------x-----0--|
--L-------x-----2------x--------|---------x-------x-------x--------|


                                     ^                           
  E  E   E   E   E   E   E    E      Q    E  E  E  E   E     E   
---------------------0--(0)-------|--0--------------------------|
---------------------0--(0)-------|--3-------------3-------2g3--|
--L-----(6)--6--(6)--6--(6)--(0)--|--2----2--------2--(2)----2--|
-----7--(7)--7--(7)--7--(7)--(0)--|--0----0--0--------(0)-------|
--L------x-------x-------x--------|--0----x------------x--------|
---------x-------x-------x--------|--0----x-----0------x-----0--|


  E  E   E     Q    E   E   E     E  E  E  E  E  E  E  E   
-------------------------------|--------0--------0--------|
--L--3--(3)---------3--(3)-----|--------3--3-----3--------|
--L--2--(2)--2g4-------(4)-----|-----2-----2--2--------2--|
--------(0)----0-------(0)-----|-----0--------0--------0--|
---------x--------------x---0--|--2-----x-----x-----x-----|
--L------x--------------x------|--------x-----x-----x-----|


                                  ^                          
  E  E  E    Q    E   E    E      Q    E  Q      E   E   E   
-------------------------------|--2----2--0-----------------|
--2--0------------3--(3)-------|--0----0--0----2g3-------2--|
--2--2-----2g4----4--(4)--(0)--|--0----0--0------0--(0)--0--|
--------------------------(0)--|--2-----------------(2)-----|
--2-----x-------------x--------|--2----x-------------x------|
--------x-------------x--------|--2----x--2----------x---2--|


  ^                                                             
  E  E   E   Q    E   E   E      E  E   E   E   E   E   E   E   
------------------------------|--------------------------------|
--L--0---------------(0)------|--------(0)--0--(3)--3--(3)--0--|
--L--0--(0)--2----0--(0)--0h--|--2-----(2)--2--(2)--2--(2)--6--|
--------(2)--2----2--(0)------|--------(2)--2--(2)-----(2)--7--|
---------x------------x-------|--0--0---x-------x-------x---0--|
--L------x---2--------x-------|---------x-------x-------x------|


                             TH               TH           TH  
  E  E   E   E   E   E  E    E     E  E  E    Q    E  E    E   
--------(0)--0-------0--0--<>0--|--L--------<>0----------<>0--|
--L--0--(0)--0--(0)--0--0--<>0--|--L--0-----<>0----0-----<>0--|
--L--6--(6)--6--(6)--6--6--<>6--|--L--6--6--<>6----6--6--<>6--|
--L--7--(7)--7--(7)--7--7--<>7--|--L--7--7--<>7----7--7--<>7--|
--L------x-------x------0-------|-----0--0---------0--0-------|
---------x-------x------x-------|-----------------------------|


                             ^                  
  E  E  E  E  E  E  E  E     W                  
--L--0--0--0--0--0--0-----|--0----------------||
--L--0--0--0--0--0--0--0--|--3----------------||
--L--6--6--6--6--6--6--6--|--2----------------||
--L--7--7--7--7--7--7--7--|--0----------------||
--------0-----0-----0-----|--0----------------||
--------------------------|--0----------------||




Duration Legend
---------------
W - whole
H - half
Q - quarter
E - 8th
S - 16th
T - 32nd
X - 64th
. - note dotted
|-n-|  - n-tuplets


Tablature Legend
----------------
L - tied note
x - dead note
g - grace note
(n) - ghost note
> - accentuded note
NH - natural harmonic
AH - artificial harmonic
TH - tapped harmonic
SH - semi harmonic
PH - pitch harmonic
h - hammer on
p - pull off
b - bend
br - bendRelease
pb - preBend
pbr - preBendRelease
brb - bendReleaseBend
\n/ - tremolo bar dip
\n - tremolo bar dive
-/n - tremolo bar Release up
/n\ - tremolo bar inverted dip
/n - tremolo bar return
-\n - tremolo bar Release down
S - shift slide
s - legato slide
/ -  slide into from below or out of upwards
\ -  slide into from above or out of downwards
~ - vibrato
W - wide vibrato
tr - trill
TP - tremolo picking
T - tapping
S - slap
P - pop
< - fade in
^ - brush up
v - brush down
Добавлено: 14.08.2013
Другие материалы по этой песне:

Страница создана 30.07.2013
http://primanota.ru/sungha-jung/last-christmas-chords.htm
Привет, Гость.
Предлагаем пройти революционный курс по гитаре.
Подарок от PrimaNota.Ru, забирай!